  0
SECTION
  2
HEADER
  9
$ACADVER
  1
AC1015
  9
$ACADMAINTVER
 70
    13
  9
$DWGCODEPAGE
  3
ANSI_1252
  9
$INSBASE
 10
0.0
 20
0.0
 30
0.0
  9
$EXTMIN
 10
25.98087579177138
 20
359.5394781666291
 30
-64.50986408164215
  9
$EXTMAX
 10
384.0313681167241
 20
1025.801150625454
 30
-64.48520237228251
  9
$LIMMIN
 10
0.0
 20
0.0
  9
$LIMMAX
 10
12.0
 20
9.0
  9
$ORTHOMODE
 70
     0
  9
$REGENMODE
 70
     1
  9
$FILLMODE
 70
     1
  9
$QTEXTMODE
 70
     0
  9
$MIRRTEXT
 70
     1
  9
$LTSCALE
 40
1.0
  9
$ATTMODE
 70
     1
  9
$TEXTSIZE
 40
0.2
  9
$TRACEWID
 40
0.05
  9
$TEXTSTYLE
  7
Standard
  9
$CLAYER
  8
0
  9
$CELTYPE
  6
ByLayer
  9
$CECOLOR
 62
   256
  9
$CELTSCALE
 40
1.0
  9
$DISPSILH
 70
     0
  9
$DIMSCALE
 40
1.0
  9
$DIMASZ
 40
0.18
  9
$DIMEXO
 40
0.0625
  9
$DIMDLI
 40
0.38
  9
$DIMRND
 40
0.0
  9
$DIMDLE
 40
0.0
  9
$DIMEXE
 40
0.18
  9
$DIMTP
 40
0.0
  9
$DIMTM
 40
0.0
  9
$DIMTXT
 40
0.18
  9
$DIMCEN
 40
0.09
  9
$DIMTSZ
 40
0.0
  9
$DIMTOL
 70
     0
  9
$DIMLIM
 70
     0
  9
$DIMTIH
 70
     1
  9
$DIMTOH
 70
     1
  9
$DIMSE1
 70
     0
  9
$DIMSE2
 70
     0
  9
$DIMTAD
 70
     0
  9
$DIMZIN
 70
     0
  9
$DIMBLK
  1

  9
$DIMASO
 70
     1
  9
$DIMSHO
 70
     1
  9
$DIMPOST
  1

  9
$DIMAPOST
  1

  9
$DIMALT
 70
     0
  9
$DIMALTD
 70
     2
  9
$DIMALTF
 40
25.4
  9
$DIMLFAC
 40
1.0
  9
$DIMTOFL
 70
     0
  9
$DIMTVP
 40
0.0
  9
$DIMTIX
 70
     0
  9
$DIMSOXD
 70
     0
  9
$DIMSAH
 70
     0
  9
$DIMBLK1
  1

  9
$DIMBLK2
  1

  9
$DIMSTYLE
  2
Standard
  9
$DIMCLRD
 70
     0
  9
$DIMCLRE
 70
     0
  9
$DIMCLRT
 70
     0
  9
$DIMTFAC
 40
1.0
  9
$DIMGAP
 40
0.09
  9
$DIMJUST
 70
     0
  9
$DIMSD1
 70
     0
  9
$DIMSD2
 70
     0
  9
$DIMTOLJ
 70
     1
  9
$DIMTZIN
 70
     0
  9
$DIMALTZ
 70
     0
  9
$DIMALTTZ
 70
     0
  9
$DIMUPT
 70
     0
  9
$DIMDEC
 70
     4
  9
$DIMTDEC
 70
     4
  9
$DIMALTU
 70
     2
  9
$DIMALTTD
 70
     2
  9
$DIMTXSTY
  7
Standard
  9
$DIMAUNIT
 70
     0
  9
$DIMADEC
 70
     0
  9
$DIMALTRND
 40
0.0
  9
$DIMAZIN
 70
     0
  9
$DIMDSEP
 70
    46
  9
$DIMATFIT
 70
     3
  9
$DIMFRAC
 70
     0
  9
$DIMLDRBLK
  1

  9
$DIMLUNIT
 70
     2
  9
$DIMLWD
 70
    -2
  9
$DIMLWE
 70
    -2
  9
$DIMTMOVE
 70
     0
  9
$LUNITS
 70
     2
  9
$LUPREC
 70
     4
  9
$SKETCHINC
 40
0.1
  9
$FILLETRAD
 40
0.5
  9
$AUNITS
 70
     0
  9
$AUPREC
 70
     0
  9
$MENU
  1
.
  9
$ELEVATION
 40
0.0
  9
$PELEVATION
 40
0.0
  9
$THICKNESS
 40
0.0
  9
$LIMCHECK
 70
     0
  9
$CHAMFERA
 40
0.5
  9
$CHAMFERB
 40
0.5
  9
$CHAMFERC
 40
1.0
  9
$CHAMFERD
 40
0.0
  9
$SKPOLY
 70
     0
  9
$TDCREATE
 40
2455412.450332569
  9
$TDUCREATE
 40
2455412.366999236
  9
$TDUPDATE
 40
2455412.454133067
  9
$TDUUPDATE
 40
2455412.370799733
  9
$TDINDWG
 40
0.0038004977
  9
$TDUSRTIMER
 40
0.0038004977
  9
$USRTIMER
 70
     1
  9
$ANGBASE
 50
0.0
  9
$ANGDIR
 70
     0
  9
$PDMODE
 70
     0
  9
$PDSIZE
 40
0.0
  9
$PLINEWID
 40
0.0
  9
$SPLFRAME
 70
     0
  9
$SPLINETYPE
 70
     6
  9
$SPLINESEGS
 70
     8
  9
$HANDSEED
  5
226
  9
$SURFTAB1
 70
     6
  9
$SURFTAB2
 70
     6
  9
$SURFTYPE
 70
     6
  9
$SURFU
 70
     6
  9
$SURFV
 70
     6
  9
$UCSBASE
  2

  9
$UCSNAME
  2

  9
$UCSORG
 10
0.0
 20
0.0
 30
0.0
  9
$UCSXDIR
 10
1.0
 20
0.0
 30
0.0
  9
$UCSYDIR
 10
0.0
 20
1.0
 30
0.0
  9
$UCSORTHOREF
  2

  9
$UCSORTHOVIEW
 70
     0
  9
$UCSORGTOP
 10
0.0
 20
0.0
 30
0.0
  9
$UCSORGBOTTOM
 10
0.0
 20
0.0
 30
0.0
  9
$UCSORGLEFT
 10
0.0
 20
0.0
 30
0.0
  9
$UCSORGRIGHT
 10
0.0
 20
0.0
 30
0.0
  9
$UCSORGFRONT
 10
0.0
 20
0.0
 30
0.0
  9
$UCSORGBACK
 10
0.0
 20
0.0
 30
0.0
  9
$PUCSBASE
  2

  9
$PUCSNAME
  2

  9
$PUCSORG
 10
0.0
 20
0.0
 30
0.0
  9
$PUCSXDIR
 10
1.0
 20
0.0
 30
0.0
  9
$PUCSYDIR
 10
0.0
 20
1.0
 30
0.0
  9
$PUCSORTHOREF
  2

  9
$PUCSORTHOVIEW
 70
     0
  9
$PUCSORGTOP
 10
0.0
 20
0.0
 30
0.0
  9
$PUCSORGBOTTOM
 10
0.0
 20
0.0
 30
0.0
  9
$PUCSORGLEFT
 10
0.0
 20
0.0
 30
0.0
  9
$PUCSORGRIGHT
 10
0.0
 20
0.0
 30
0.0
  9
$PUCSORGFRONT
 10
0.0
 20
0.0
 30
0.0
  9
$PUCSORGBACK
 10
0.0
 20
0.0
 30
0.0
  9
$USERI1
 70
     0
  9
$USERI2
 70
     0
  9
$USERI3
 70
     0
  9
$USERI4
 70
     0
  9
$USERI5
 70
     0
  9
$USERR1
 40
0.0
  9
$USERR2
 40
0.0
  9
$USERR3
 40
0.0
  9
$USERR4
 40
0.0
  9
$USERR5
 40
0.0
  9
$WORLDVIEW
 70
     1
  9
$SHADEDGE
 70
     3
  9
$SHADEDIF
 70
    70
  9
$TILEMODE
 70
     1
  9
$MAXACTVP
 70
    64
  9
$PINSBASE
 10
0.0
 20
0.0
 30
0.0
  9
$PLIMCHECK
 70
     0
  9
$PEXTMIN
 10
0.0
 20
0.0
 30
0.0
  9
$PEXTMAX
 10
0.0
 20
0.0
 30
0.0
  9
$PLIMMIN
 10
0.0
 20
0.0
  9
$PLIMMAX
 10
12.0
 20
9.0
  9
$UNITMODE
 70
     0
  9
$VISRETAIN
 70
     1
  9
$PLINEGEN
 70
     0
  9
$PSLTSCALE
 70
     1
  9
$TREEDEPTH
 70
  3020
  9
$CMLSTYLE
  2
Standard
  9
$CMLJUST
 70
     0
  9
$CMLSCALE
 40
1.0
  9
$PROXYGRAPHICS
 70
     1
  9
$MEASUREMENT
 70
     0
  9
$CELWEIGHT
370
    -1
  9
$ENDCAPS
280
     0
  9
$JOINSTYLE
280
     0
  9
$LWDISPLAY
290
     0
  9
$INSUNITS
 70
     1
  9
$HYPERLINKBASE
  1

  9
$STYLESHEET
  1

  9
$XEDIT
290
     1
  9
$CEPSNTYPE
380
     0
  9
$PSTYLEMODE
290
     1
  9
$FINGERPRINTGUID
  2
{FDEAD576-A652-11D2-9A35-0060089B3A3F}
  9
$VERSIONGUID
  2
{AC2C1872-FE67-40C6-9879-3F69F4D400FF}
  9
$EXTNAMES
290
     1
  9
$PSVPSCALE
 40
0.0
  9
$OLESTARTUP
290
     0
  0
ENDSEC
  0
SECTION
  2
CLASSES
  0
CLASS
  1
ACDBDICTIONARYWDFLT
  2
AcDbDictionaryWithDefault
  3
AutoCAD 2000
 90
        0
280
     0
281
     0
  0
CLASS
  1
ACDBPLACEHOLDER
  2
AcDbPlaceHolder
  3
AutoCAD 2000
 90
        0
280
     0
281
     0
  0
CLASS
  1
LAYOUT
  2
AcDbLayout
  3
AutoCAD 2000
 90
        0
280
     0
281
     0
  0
CLASS
  1
DICTIONARYVAR
  2
AcDbDictionaryVar
  3
AutoCAD 2000
 90
        0
280
     0
281
     0
  0
CLASS
  1
DIMASSOC
  2
AcDbDimAssoc
  3
"AcDbDimAssoc|Product Desc:     AcDim ARX App For Dimension|Company:          Autodesk, Inc.|WEB Address:      www.autodesk.com"
 90
        0
280
     0
281
     0
  0
ENDSEC
  0
SECTION
  2
TABLES
  0
TABLE
  2
VPORT
  5
8
330
0
100
AcDbSymbolTable
 70
     2
  0
VPORT
  5
225
330
8
100
AcDbSymbolTableRecord
100
AcDbViewportTableRecord
  2
*Active
 70
     0
 10
0.0
 20
0.0
 11
1.0
 21
1.0
 12
205.0061219542478
 22
692.6703143960419
 13
0.0
 23
0.0
 14
0.5
 24
0.5
 15
0.5
 25
0.5
 16
0.0
 26
0.0
 36
1.0
 17
0.0
 27
0.0
 37
0.0
 40
670.3786343895703
 41
1.571134020618556
 42
50.0
 43
0.0
 44
0.0
 50
0.0
 51
0.0
 71
     0
 72
   100
 73
     1
 74
     3
 75
     0
 76
     0
 77
     0
 78
     0
281
     0
 65
     1
110
0.0
120
0.0
130
0.0
111
1.0
121
0.0
131
0.0
112
0.0
122
1.0
132
0.0
 79
     0
146
0.0
  0
ENDTAB
  0
TABLE
  2
LTYPE
  5
5
330
0
100
AcDbSymbolTable
 70
     3
  0
LTYPE
  5
14
330
5
100
AcDbSymbolTableRecord
100
AcDbLinetypeTableRecord
  2
ByBlock
 70
     0
  3

 72
    65
 73
     0
 40
0.0
  0
LTYPE
  5
15
330
5
100
AcDbSymbolTableRecord
100
AcDbLinetypeTableRecord
  2
ByLayer
 70
     0
  3

 72
    65
 73
     0
 40
0.0
  0
LTYPE
  5
16
330
5
100
AcDbSymbolTableRecord
100
AcDbLinetypeTableRecord
  2
Continuous
 70
     0
  3
Solid line
 72
    65
 73
     0
 40
0.0
  0
LTYPE
  5
C8
330
5
100
AcDbSymbolTableRecord
100
AcDbLinetypeTableRecord
  2
MITTE
 70
     0
  3
____ _ ____ _ ____ _ ____ _ ____ _ ____ _ ____ 
 72
    65
 73
     4
 40
2.0
 49
1.25
 74
     0
 49
-0.25
 74
     0
 49
0.25
 74
     0
 49
-0.25
 74
     0
  0
LTYPE
  5
C9
330
5
100
AcDbSymbolTableRecord
100
AcDbLinetypeTableRecord
  2
VERDECKT
 70
     0
  3
Verdeckt __ __ __ __ __ __ __ __ __ __ __ __ __
 72
    65
 73
     2
 40
0.375
 49
0.25
 74
     0
 49
-0.125
 74
     0
  0
ENDTAB
  0
TABLE
  2
LAYER
  5
2
102
{ACAD_XDICTIONARY
360
D0
102
}
330
0
100
AcDbSymbolTable
 70
     5
  0
LAYER
  5
10
330
2
100
AcDbSymbolTableRecord
100
AcDbLayerTableRecord
  2
0
 70
     0
 62
     7
  6
Continuous
370
    -3
390
F
  0
LAYER
  5
CA
330
2
100
AcDbSymbolTableRecord
100
AcDbLayerTableRecord
  2
DEFPOINTS
 70
     0
 62
     7
  6
Continuous
290
     0
370
    -3
390
F
  0
LAYER
  5
CB
330
2
100
AcDbSymbolTableRecord
100
AcDbLayerTableRecord
  2
Ausschnitt
 70
     0
 62
     7
  6
Continuous
370
    -3
390
F
  0
LAYER
  5
CC
330
2
100
AcDbSymbolTableRecord
100
AcDbLayerTableRecord
  2
Mitte
 70
     0
 62
     1
  6
Continuous
370
    -3
390
F
  0
LAYER
  5
CD
330
2
100
AcDbSymbolTableRecord
100
AcDbLayerTableRecord
  2
verdeckt
 70
     0
 62
     1
  6
VERDECKT
370
    -3
390
F
  0
ENDTAB
  0
TABLE
  2
STYLE
  5
3
330
0
100
AcDbSymbolTable
 70
     2
  0
STYLE
  5
11
330
3
100
AcDbSymbolTableRecord
100
AcDbTextStyleTableRecord
  2
Standard
 70
     0
 40
0.0
 41
1.0
 50
0.0
 71
     0
 42
0.2
  3
txt
  4

  0
STYLE
  5
CE
330
3
100
AcDbSymbolTableRecord
100
AcDbTextStyleTableRecord
  2
ISOCP
 70
     0
 40
0.0
 41
1.0
 50
0.0
 71
     0
 42
3.5
  3
isocp.shx
  4

  0
ENDTAB
  0
TABLE
  2
VIEW
  5
6
330
0
100
AcDbSymbolTable
 70
     0
  0
ENDTAB
  0
TABLE
  2
UCS
  5
7
330
0
100
AcDbSymbolTable
 70
     0
  0
ENDTAB
  0
TABLE
  2
APPID
  5
9
330
0
100
AcDbSymbolTable
 70
     1
  0
APPID
  5
12
330
9
100
AcDbSymbolTableRecord
100
AcDbRegAppTableRecord
  2
ACAD
 70
     0
  0
ENDTAB
  0
TABLE
  2
DIMSTYLE
  5
A
330
0
100
AcDbSymbolTable
 70
     2
100
AcDbDimStyleTable
 71
     0
  0
DIMSTYLE
105
27
330
A
100
AcDbSymbolTableRecord
100
AcDbDimStyleTableRecord
  2
Standard
 70
     0
340
11
  0
DIMSTYLE
105
CF
102
{ACAD_REACTORS
330
DB
330
EE
330
EB
330
DF
330
D6
330
EA
330
D3
102
}
330
A
100
AcDbSymbolTableRecord
100
AcDbDimStyleTableRecord
  2
PDG
 70
     0
  4
"
 40
4.0
 41
3.5
 42
0.0
 43
10.0
 44
2.0
 73
     0
 74
     0
 77
     1
 78
     8
 79
     2
140
3.5
141
-3.0
143
0.03937
146
0.7143000000000001
147
1.5
170
     1
172
     1
176
     1
177
     1
178
     6
179
     1
284
     8
285
     8
286
     8
340
CE
  0
ENDTAB
  0
TABLE
  2
BLOCK_RECORD
  5
1
330
0
100
AcDbSymbolTable
 70
    16
  0
BLOCK_RECORD
  5
1F
330
1
100
AcDbSymbolTableRecord
100
AcDbBlockTableRecord
  2
*Model_Space
340
22
  0
BLOCK_RECORD
  5
58
330
1
100
AcDbSymbolTableRecord
100
AcDbBlockTableRecord
  2
*Paper_Space
340
59
  0
BLOCK_RECORD
  5
5D
330
1
100
AcDbSymbolTableRecord
100
AcDbBlockTableRecord
  2
*Paper_Space0
340
5E
  0
BLOCK_RECORD
  5
74
330
1
100
AcDbSymbolTableRecord
100
AcDbBlockTableRecord
  2
*D1
340
0
  0
BLOCK_RECORD
  5
80
330
1
100
AcDbSymbolTableRecord
100
AcDbBlockTableRecord
  2
*D2
340
0
  0
BLOCK_RECORD
  5
8C
330
1
100
AcDbSymbolTableRecord
100
AcDbBlockTableRecord
  2
*D3
340
0
  0
BLOCK_RECORD
  5
98
330
1
100
AcDbSymbolTableRecord
100
AcDbBlockTableRecord
  2
*D4
340
0
  0
BLOCK_RECORD
  5
A4
330
1
100
AcDbSymbolTableRecord
100
AcDbBlockTableRecord
  2
*D5
340
0
  0
BLOCK_RECORD
  5
B0
330
1
100
AcDbSymbolTableRecord
100
AcDbBlockTableRecord
  2
*D6
340
0
  0
BLOCK_RECORD
  5
BC
330
1
100
AcDbSymbolTableRecord
100
AcDbBlockTableRecord
  2
*D7
340
0
  0
BLOCK_RECORD
  5
129
330
1
100
AcDbSymbolTableRecord
100
AcDbBlockTableRecord
  2
*D9
340
0
  0
BLOCK_RECORD
  5
135
330
1
100
AcDbSymbolTableRecord
100
AcDbBlockTableRecord
  2
*D10
340
0
  0
BLOCK_RECORD
  5
141
330
1
100
AcDbSymbolTableRecord
100
AcDbBlockTableRecord
  2
*D11
340
0
  0
BLOCK_RECORD
  5
14D
330
1
100
AcDbSymbolTableRecord
100
AcDbBlockTableRecord
  2
*D12
340
0
  0
BLOCK_RECORD
  5
162
330
1
100
AcDbSymbolTableRecord
100
AcDbBlockTableRecord
  2
*D13
340
0
  0
BLOCK_RECORD
  5
177
330
1
100
AcDbSymbolTableRecord
100
AcDbBlockTableRecord
  2
*D14
340
0
  0
BLOCK_RECORD
  5
183
330
1
100
AcDbSymbolTableRecord
100
AcDbBlockTableRecord
  2
*D15
340
0
  0
ENDTAB
  0
ENDSEC
  0
SECTION
  2
BLOCKS
  0
BLOCK
  5
20
330
1F
100
AcDbEntity
  8
0
100
AcDbBlockBegin
  2
*Model_Space
 70
     0
 10
0.0
 20
0.0
 30
0.0
  3
*Model_Space
  1

  0
ENDBLK
  5
21
330
1F
100
AcDbEntity
  8
0
100
AcDbBlockEnd
  0
BLOCK
  5
5A
330
58
100
AcDbEntity
 67
     1
  8
0
100
AcDbBlockBegin
  2
*Paper_Space
 70
     0
 10
0.0
 20
0.0
 30
0.0
  3
*Paper_Space
  1

  0
ENDBLK
  5
5B
330
58
100
AcDbEntity
 67
     1
  8
0
100
AcDbBlockEnd
  0
BLOCK
  5
5F
330
5D
100
AcDbEntity
  8
0
100
AcDbBlockBegin
  2
*Paper_Space0
 70
     0
 10
0.0
 20
0.0
 30
0.0
  3
*Paper_Space0
  1

  0
ENDBLK
  5
60
330
5D
100
AcDbEntity
  8
0
100
AcDbBlockEnd
  0
BLOCK
  5
7E
330
74
100
AcDbEntity
  8
0
100
AcDbBlockBegin
  2
*D1
 70
     1
 10
0.0
 20
0.0
 30
0.0
  3
*D1
  1

  0
LINE
  5
75
330
74
100
AcDbEntity
  8
0
 62
     1
370
    -2
100
AcDbLine
 10
750.3701900718866
 20
1092.252997909544
 30
0.0
 11
750.3701900718866
 21
1349.790359505455
 31
0.0
  0
LINE
  5
76
330
74
100
AcDbEntity
  8
0
 62
     1
370
    -2
100
AcDbLine
 10
1100.370199445566
 20
1092.252997909544
 30
0.0
 11
1100.370199445566
 21
1349.790359505455
 31
0.0
  0
LINE
  5
77
330
74
100
AcDbEntity
  8
0
 62
     1
370
    -2
100
AcDbLine
 10
764.3701900718865
 20
1341.790359505455
 30
0.0
 11
1086.370199445566
 21
1341.790359505455
 31
0.0
  0
SOLID
  5
78
330
74
100
AcDbEntity
  8
0
 62
     1
100
AcDbTrace
 10
764.3701900718865
 20
1344.123692838788
 30
0.0
 11
764.3701900718865
 21
1339.457026172121
 31
0.0
 12
750.3701900718866
 22
1341.790359505455
 32
0.0
 13
750.3701900718866
 23
1341.790359505455
 33
0.0
  0
SOLID
  5
79
330
74
100
AcDbEntity
  8
0
 62
     1
100
AcDbTrace
 10
1086.370199445566
 20
1344.123692838788
 30
0.0
 11
1086.370199445566
 21
1339.457026172121
 31
0.0
 12
1100.370199445566
 22
1341.790359505455
 32
0.0
 13
1100.370199445566
 23
1341.790359505455
 33
0.0
  0
MTEXT
  5
7A
330
74
100
AcDbEntity
  8
0
 62
     6
100
AcDbMText
 10
924.0089923348078
 20
1355.490359505455
 30
0.0
 40
14.0
 41
0.0
 71
     5
 72
     1
  1
\A1;350 [13.78"]
  7
ISOCP
 73
     1
 44
1.0
  0
POINT
  5
7B
330
74
100
AcDbEntity
  8
DEFPOINTS
 62
     0
100
AcDbPoint
 10
750.3701900718866
 20
1092.252997909544
 30
90.00000000000012
  0
POINT
  5
7C
330
74
100
AcDbEntity
  8
DEFPOINTS
 62
     0
100
AcDbPoint
 10
1100.370199445566
 20
1092.252997909544
 30
0.0000000000003695
  0
POINT
  5
7D
330
74
100
AcDbEntity
  8
DEFPOINTS
 62
     0
100
AcDbPoint
 10
1100.370199445566
 20
1341.790359505455
 30
0.0
  0
ENDBLK
  5
7F
330
74
100
AcDbEntity
  8
0
100
AcDbBlockEnd
  0
BLOCK
  5
8A
330
80
100
AcDbEntity
  8
0
100
AcDbBlockBegin
  2
*D2
 70
     1
 10
0.0
 20
0.0
 30
0.0
  3
*D2
  1

  0
LINE
  5
81
330
80
100
AcDbEntity
  8
Mitte
 62
     1
370
    -2
100
AcDbLine
 10
720.3701891394404
 20
1211.252997911516
 30
0.0
 11
720.3701891394404
 21
1319.429312846166
 31
0.0
  0
LINE
  5
82
330
80
100
AcDbEntity
  8
Mitte
 62
     1
370
    -2
100
AcDbLine
 10
990.3701806970182
 20
1115.3307812284
 30
0.0
 11
990.3701806970182
 21
1319.429312846166
 31
0.0
  0
LINE
  5
83
330
80
100
AcDbEntity
  8
Mitte
 62
     1
370
    -2
100
AcDbLine
 10
734.3701891394403
 20
1311.429312846166
 30
0.0
 11
976.3701806970182
 21
1311.429312846166
 31
0.0
  0
SOLID
  5
84
330
80
100
AcDbEntity
  8
Mitte
 62
     1
100
AcDbTrace
 10
734.3701891394403
 20
1313.762646179499
 30
0.0
 11
734.3701891394403
 21
1309.095979512832
 31
0.0
 12
720.3701891394404
 22
1311.429312846166
 32
0.0
 13
720.3701891394404
 23
1311.429312846166
 33
0.0
  0
SOLID
  5
85
330
80
100
AcDbEntity
  8
Mitte
 62
     1
100
AcDbTrace
 10
976.3701806970182
 20
1313.762646179499
 30
0.0
 11
976.3701806970182
 21
1309.095979512832
 31
0.0
 12
990.3701806970182
 22
1311.429312846166
 32
0.0
 13
990.3701806970182
 23
1311.429312846166
 33
0.0
  0
MTEXT
  5
86
330
80
100
AcDbEntity
  8
Mitte
 62
     6
100
AcDbMText
 10
855.3701849182294
 20
1325.129312846166
 30
0.0
 40
14.0
 41
0.0
 71
     5
 72
     1
  1
\A1;270 [10.63"]
  7
ISOCP
 73
     1
 44
1.0
  0
POINT
  5
87
330
80
100
AcDbEntity
  8
DEFPOINTS
 62
     0
100
AcDbPoint
 10
720.3701891394404
 20
1211.252997911516
 30
0.0
  0
POINT
  5
88
330
80
100
AcDbEntity
  8
DEFPOINTS
 62
     0
100
AcDbPoint
 10
990.3701806970182
 20
1115.3307812284
 30
-60.49999999999943
  0
POINT
  5
89
330
80
100
AcDbEntity
  8
DEFPOINTS
 62
     0
100
AcDbPoint
 10
990.3701806970182
 20
1311.429312846166
 30
0.0
  0
ENDBLK
  5
8B
330
80
100
AcDbEntity
  8
0
100
AcDbBlockEnd
  0
BLOCK
  5
96
330
8C
100
AcDbEntity
  8
0
100
AcDbBlockBegin
  2
*D3
 70
     1
 10
0.0
 20
0.0
 30
0.0
  3
*D3
  1

  0
LINE
  5
8D
330
8C
100
AcDbEntity
  8
Mitte
 62
     1
370
    -2
100
AcDbLine
 10
765.3701947587271
 20
1127.252997909545
 30
0.0
 11
765.3701947587271
 21
1288.773173180952
 31
0.0
  0
LINE
  5
8E
330
8C
100
AcDbEntity
  8
Mitte
 62
     1
370
    -2
100
AcDbLine
 10
1085.370194758727
 20
1107.991602797781
 30
0.0
 11
1085.370194758727
 21
1288.773173180952
 31
0.0
  0
LINE
  5
8F
330
8C
100
AcDbEntity
  8
Mitte
 62
     1
370
    -2
100
AcDbLine
 10
779.3701947587272
 20
1280.773173180952
 30
0.0
 11
1071.370194758727
 21
1280.773173180952
 31
0.0
  0
SOLID
  5
90
330
8C
100
AcDbEntity
  8
Mitte
 62
     1
100
AcDbTrace
 10
779.3701947587272
 20
1283.106506514285
 30
0.0
 11
779.3701947587272
 21
1278.439839847619
 31
0.0
 12
765.3701947587271
 22
1280.773173180952
 32
0.0
 13
765.3701947587271
 23
1280.773173180952
 33
0.0
  0
SOLID
  5
91
330
8C
100
AcDbEntity
  8
Mitte
 62
     1
100
AcDbTrace
 10
1071.370194758727
 20
1283.106506514285
 30
0.0
 11
1071.370194758727
 21
1278.439839847619
 31
0.0
 12
1085.370194758727
 22
1280.773173180952
 32
0.0
 13
1085.370194758727
 23
1280.773173180952
 33
0.0
  0
MTEXT
  5
92
330
8C
100
AcDbEntity
  8
Mitte
 62
     6
100
AcDbMText
 10
925.3701947587272
 20
1294.473173180952
 30
0.0
 40
14.0
 41
0.0
 71
     5
 72
     1
  1
\A1;320 [12.6"]
  7
ISOCP
 73
     1
 44
1.0
  0
POINT
  5
93
330
8C
100
AcDbEntity
  8
DEFPOINTS
 62
     0
100
AcDbPoint
 10
765.3701947587271
 20
1127.252997909545
 30
-64.4999999999997
  0
POINT
  5
94
330
8C
100
AcDbEntity
  8
DEFPOINTS
 62
     0
100
AcDbPoint
 10
1085.370194758727
 20
1107.991602797781
 30
-64.49999999999971
  0
POINT
  5
95
330
8C
100
AcDbEntity
  8
DEFPOINTS
 62
     0
100
AcDbPoint
 10
1085.370194758727
 20
1280.773173180952
 30
0.0
  0
ENDBLK
  5
97
330
8C
100
AcDbEntity
  8
0
100
AcDbBlockEnd
  0
BLOCK
  5
A2
330
98
100
AcDbEntity
  8
0
100
AcDbBlockBegin
  2
*D4
 70
     1
 10
0.0
 20
0.0
 30
0.0
  3
*D4
  1

  0
LINE
  5
99
330
98
100
AcDbEntity
  8
Mitte
 62
     1
370
    -2
100
AcDbLine
 10
777.8701900625231
 20
486.7529979090172
 30
0.0
 11
777.8701900625231
 21
196.7272849120945
 31
0.0
  0
LINE
  5
9A
330
98
100
AcDbEntity
  8
Mitte
 62
     1
370
    -2
100
AcDbLine
 10
1072.870190057639
 20
486.7529979090169
 30
0.0
 11
1072.870190057639
 21
196.7272849120945
 31
0.0
  0
LINE
  5
9B
330
98
100
AcDbEntity
  8
Mitte
 62
     1
370
    -2
100
AcDbLine
 10
791.870190062523
 20
204.7272849120945
 30
0.0
 11
1058.870190057639
 21
204.7272849120945
 31
0.0
  0
SOLID
  5
9C
330
98
100
AcDbEntity
  8
Mitte
 62
     1
100
AcDbTrace
 10
791.870190062523
 20
207.0606182454278
 30
0.0
 11
791.870190062523
 21
202.3939515787612
 31
0.0
 12
777.8701900625231
 22
204.7272849120945
 32
0.0
 13
777.8701900625231
 23
204.7272849120945
 33
0.0
  0
SOLID
  5
9D
330
98
100
AcDbEntity
  8
Mitte
 62
     1
100
AcDbTrace
 10
1058.870190057639
 20
207.0606182454278
 30
0.0
 11
1058.870190057639
 21
202.3939515787612
 31
0.0
 12
1072.870190057639
 22
204.7272849120945
 32
0.0
 13
1072.870190057639
 23
204.7272849120945
 33
0.0
  0
MTEXT
  5
9E
330
98
100
AcDbEntity
  8
Mitte
 62
     6
100
AcDbMText
 10
925.3701900600811
 20
218.4272849120945
 30
0.0
 40
14.0
 41
0.0
 71
     5
 72
     1
  1
\A1;295 [11.61"]
  7
ISOCP
 73
     1
 44
1.0
  0
POINT
  5
9F
330
98
100
AcDbEntity
  8
DEFPOINTS
 62
     0
100
AcDbPoint
 10
777.8701900625231
 20
486.7529979090172
 30
-64.49999999999949
  0
POINT
  5
A0
330
98
100
AcDbEntity
  8
DEFPOINTS
 62
     0
100
AcDbPoint
 10
1072.870190057639
 20
486.7529979090169
 30
-64.49999999999949
  0
POINT
  5
A1
330
98
100
AcDbEntity
  8
DEFPOINTS
 62
     0
100
AcDbPoint
 10
1072.870190057639
 20
204.7272849120945
 30
0.0
  0
ENDBLK
  5
A3
330
98
100
AcDbEntity
  8
0
100
AcDbBlockEnd
  0
BLOCK
  5
AE
330
A4
100
AcDbEntity
  8
0
100
AcDbBlockBegin
  2
*D5
 70
     1
 10
0.0
 20
0.0
 30
0.0
  3
*D5
  1

  0
LINE
  5
A5
330
A4
100
AcDbEntity
  8
Mitte
 62
     1
370
    -2
100
AcDbLine
 10
720.370189148792
 20
251.2529979113073
 30
0.0
 11
720.370189148792
 21
164.0841839838353
 31
0.0
  0
LINE
  5
A6
330
A4
100
AcDbEntity
  8
Mitte
 62
     1
370
    -2
100
AcDbLine
 10
1130.370189219698
 20
251.2529979115158
 30
0.0
 11
1130.370189219698
 21
164.0841839838353
 31
0.0
  0
LINE
  5
A7
330
A4
100
AcDbEntity
  8
Mitte
 62
     1
370
    -2
100
AcDbLine
 10
734.3701891487921
 20
172.0841839838353
 30
0.0
 11
1116.370189219698
 21
172.0841839838353
 31
0.0
  0
SOLID
  5
A8
330
A4
100
AcDbEntity
  8
Mitte
 62
     1
100
AcDbTrace
 10
734.3701891487921
 20
174.4175173171687
 30
0.0
 11
734.3701891487921
 21
169.750850650502
 31
0.0
 12
720.370189148792
 22
172.0841839838353
 32
0.0
 13
720.370189148792
 23
172.0841839838353
 33
0.0
  0
SOLID
  5
A9
330
A4
100
AcDbEntity
  8
Mitte
 62
     1
100
AcDbTrace
 10
1116.370189219698
 20
174.4175173171687
 30
0.0
 11
1116.370189219698
 21
169.750850650502
 31
0.0
 12
1130.370189219698
 22
172.0841839838353
 32
0.0
 13
1130.370189219698
 23
172.0841839838353
 33
0.0
  0
MTEXT
  5
AA
330
A4
100
AcDbEntity
  8
Mitte
 62
     6
100
AcDbMText
 10
925.3701891842453
 20
185.7841839838353
 30
0.0
 40
14.0
 41
0.0
 71
     5
 72
     1
  1
\A1;410 [16.14"]
  7
ISOCP
 73
     1
 44
1.0
  0
POINT
  5
AB
330
A4
100
AcDbEntity
  8
DEFPOINTS
 62
     0
100
AcDbPoint
 10
720.370189148792
 20
251.2529979113073
 30
258.7508889595181
  0
POINT
  5
AC
330
A4
100
AcDbEntity
  8
DEFPOINTS
 62
     0
100
AcDbPoint
 10
1130.370189219698
 20
251.2529979115158
 30
0.0
  0
POINT
  5
AD
330
A4
100
AcDbEntity
  8
DEFPOINTS
 62
     0
100
AcDbPoint
 10
1130.370189219698
 20
172.0841839838353
 30
0.0
  0
ENDBLK
  5
AF
330
A4
100
AcDbEntity
  8
0
100
AcDbBlockEnd
  0
BLOCK
  5
BA
330
B0
100
AcDbEntity
  8
0
100
AcDbBlockBegin
  2
*D6
 70
     1
 10
0.0
 20
0.0
 30
0.0
  3
*D6
  1

  0
LINE
  5
B1
330
B0
100
AcDbEntity
  8
Mitte
 62
     1
370
    -2
100
AcDbLine
 10
1058.370180697018
 20
1025.252997903362
 30
0.0
 11
1058.370180697018
 21
1252.301064145765
 31
0.0
  0
LINE
  5
B2
330
B0
100
AcDbEntity
  8
Mitte
 62
     1
370
    -2
100
AcDbLine
 10
922.3701806970181
 20
1025.252997903362
 30
0.0
 11
922.3701806970181
 21
1252.301064145765
 31
0.0
  0
LINE
  5
B3
330
B0
100
AcDbEntity
  8
Mitte
 62
     1
370
    -2
100
AcDbLine
 10
1044.370180697018
 20
1244.301064145765
 30
0.0
 11
936.3701806970182
 21
1244.301064145765
 31
0.0
  0
SOLID
  5
B4
330
B0
100
AcDbEntity
  8
Mitte
 62
     1
100
AcDbTrace
 10
1044.370180697018
 20
1246.634397479098
 30
0.0
 11
1044.370180697018
 21
1241.967730812432
 31
0.0
 12
1058.370180697018
 22
1244.301064145765
 32
0.0
 13
1058.370180697018
 23
1244.301064145765
 33
0.0
  0
SOLID
  5
B5
330
B0
100
AcDbEntity
  8
Mitte
 62
     1
100
AcDbTrace
 10
936.3701806970182
 20
1246.634397479098
 30
0.0
 11
936.3701806970182
 21
1241.967730812432
 31
0.0
 12
922.3701806970181
 22
1244.301064145765
 32
0.0
 13
922.3701806970181
 23
1244.301064145765
 33
0.0
  0
MTEXT
  5
B6
330
B0
100
AcDbEntity
  8
Mitte
 62
     6
100
AcDbMText
 10
990.3701806970182
 20
1258.001064145765
 30
0.0
 40
14.0
 41
0.0
 71
     5
 72
     1
  1
\A1;%%c136 [5.35"]
  7
ISOCP
 73
     1
 44
1.0
  0
POINT
  5
B7
330
B0
100
AcDbEntity
  8
DEFPOINTS
 62
     0
100
AcDbPoint
 10
1058.370180697018
 20
1025.252997903362
 30
-60.49999999999943
  0
POINT
  5
B8
330
B0
100
AcDbEntity
  8
DEFPOINTS
 62
     0
100
AcDbPoint
 10
922.3701806970181
 20
1025.252997903362
 30
-60.49999999999943
  0
POINT
  5
B9
330
B0
100
AcDbEntity
  8
DEFPOINTS
 62
     0
100
AcDbPoint
 10
922.3701806970181
 20
1244.301064145765
 30
0.0
  0
ENDBLK
  5
BB
330
B0
100
AcDbEntity
  8
0
100
AcDbBlockEnd
  0
BLOCK
  5
C6
330
BC
100
AcDbEntity
  8
0
100
AcDbBlockBegin
  2
*D7
 70
     1
 10
0.0
 20
0.0
 30
0.0
  3
*D7
  1

  0
LINE
  5
BD
330
BC
100
AcDbEntity
  8
Mitte
 62
     1
370
    -2
100
AcDbLine
 10
1072.870190057639
 20
596.7529979090169
 30
0.0
 11
1178.943514773159
 21
596.7529979090169
 31
0.0
  0
LINE
  5
BE
330
BC
100
AcDbEntity
  8
Mitte
 62
     1
370
    -2
100
AcDbLine
 10
1072.870190057639
 20
486.7529979090168
 30
0.0
 11
1178.943514773159
 21
486.7529979090167
 31
0.0
  0
LINE
  5
BF
330
BC
100
AcDbEntity
  8
Mitte
 62
     1
370
    -2
100
AcDbLine
 10
1170.943514773159
 20
582.7529979090169
 30
0.0
 11
1170.943514773159
 21
500.7529979090167
 31
0.0
  0
SOLID
  5
C0
330
BC
100
AcDbEntity
  8
Mitte
 62
     1
100
AcDbTrace
 10
1168.610181439825
 20
582.7529979090169
 30
0.0
 11
1173.276848106492
 21
582.7529979090169
 31
0.0
 12
1170.943514773159
 22
596.7529979090169
 32
0.0
 13
1170.943514773159
 23
596.7529979090169
 33
0.0
  0
SOLID
  5
C1
330
BC
100
AcDbEntity
  8
Mitte
 62
     1
100
AcDbTrace
 10
1168.610181439825
 20
500.7529979090167
 30
0.0
 11
1173.276848106492
 21
500.7529979090167
 31
0.0
 12
1170.943514773159
 22
486.7529979090167
 32
0.0
 13
1170.943514773159
 23
486.7529979090167
 33
0.0
  0
MTEXT
  5
C2
330
BC
100
AcDbEntity
  8
Mitte
 62
     6
100
AcDbMText
 10
1157.243514773159
 20
541.7529979090168
 30
0.0
 40
14.0
 41
0.0
 71
     5
 72
     1
  1
\A1;110 [4.33"]
  7
ISOCP
 11
0.0000000000000001
 21
1.0
 31
0.0
 73
     1
 44
1.0
  0
POINT
  5
C3
330
BC
100
AcDbEntity
  8
DEFPOINTS
 62
     0
100
AcDbPoint
 10
1072.870190057639
 20
596.7529979090169
 30
-64.49999999999949
  0
POINT
  5
C4
330
BC
100
AcDbEntity
  8
DEFPOINTS
 62
     0
100
AcDbPoint
 10
1072.870190057639
 20
486.7529979090168
 30
-64.49999999999949
  0
POINT
  5
C5
330
BC
100
AcDbEntity
  8
DEFPOINTS
 62
     0
100
AcDbPoint
 10
1170.943514773159
 20
486.7529979090167
 30
0.0
  0
ENDBLK
  5
C7
330
BC
100
AcDbEntity
  8
0
100
AcDbBlockEnd
  0
BLOCK
  5
133
330
129
100
AcDbEntity
  8
0
100
AcDbBlockBegin
  2
*D9
 70
     1
 10
0.0
 20
0.0
 30
0.0
  3
*D9
  1

  0
LINE
  5
159
330
129
100
AcDbEntity
  8
0
 62
     1
370
    -2
100
AcDbLine
 10
29.99999858040473
 20
978.6946123855383
 30
0.0
 11
29.99999858040474
 21
1236.231973981448
 31
0.0
  0
LINE
  5
15A
330
129
100
AcDbEntity
  8
0
 62
     1
370
    -2
100
AcDbLine
 10
380.0000079540841
 20
978.6946123855386
 30
0.0
 11
380.0000079540841
 21
1236.231973981448
 31
0.0
  0
LINE
  5
15B
330
129
100
AcDbEntity
  8
0
 62
     1
370
    -2
100
AcDbLine
 10
43.99999858040475
 20
1228.231973981448
 30
0.0
 11
366.0000079540841
 21
1228.231973981448
 31
0.0
  0
SOLID
  5
15C
330
129
100
AcDbEntity
  8
0
 62
     1
100
AcDbTrace
 10
43.99999858040475
 20
1230.565307314782
 30
0.0
 11
43.99999858040475
 21
1225.898640648115
 31
0.0
 12
29.99999858040474
 22
1228.231973981448
 32
0.0
 13
29.99999858040474
 23
1228.231973981448
 33
0.0
  0
SOLID
  5
15D
330
129
100
AcDbEntity
  8
0
 62
     1
100
AcDbTrace
 10
366.0000079540841
 20
1230.565307314782
 30
0.0
 11
366.0000079540841
 21
1225.898640648115
 31
0.0
 12
380.0000079540841
 22
1228.231973981448
 32
0.0
 13
380.0000079540841
 23
1228.231973981448
 33
0.0
  0
MTEXT
  5
15E
330
129
100
AcDbEntity
  8
0
 62
     6
100
AcDbMText
 10
203.6388008433259
 20
1241.931973981448
 30
0.0
 40
14.0
 41
0.0
 71
     5
 72
     1
  1
\A1;350 [13.78"]
  7
ISOCP
 73
     1
 44
1.0
  0
POINT
  5
15F
330
129
100
AcDbEntity
  8
DEFPOINTS
 62
     0
100
AcDbPoint
 10
29.99999858040473
 20
978.6946123855383
 30
90.00000000000012
  0
POINT
  5
160
330
129
100
AcDbEntity
  8
DEFPOINTS
 62
     0
100
AcDbPoint
 10
380.0000079540841
 20
978.6946123855386
 30
0.0000000000003695
  0
POINT
  5
161
330
129
100
AcDbEntity
  8
DEFPOINTS
 62
     0
100
AcDbPoint
 10
380.0000079540841
 20
1228.231973981448
 30
0.0
  0
ENDBLK
  5
134
330
129
100
AcDbEntity
  8
0
100
AcDbBlockEnd
  0
BLOCK
  5
13F
330
135
100
AcDbEntity
  8
0
100
AcDbBlockBegin
  2
*D10
 70
     1
 10
0.0
 20
0.0
 30
0.0
  3
*D10
  1

  0
LINE
  5
16E
330
135
100
AcDbEntity
  8
Mitte
 62
     1
370
    -2
100
AcDbLine
 10
337.9999892055363
 20
911.6946123793564
 30
0.0
 11
337.9999892055363
 21
1138.742678621759
 31
0.0
  0
LINE
  5
16F
330
135
100
AcDbEntity
  8
Mitte
 62
     1
370
    -2
100
AcDbLine
 10
201.9999892055364
 20
911.6946123793564
 30
0.0
 11
201.9999892055364
 21
1138.742678621759
 31
0.0
  0
LINE
  5
170
330
135
100
AcDbEntity
  8
Mitte
 62
     1
370
    -2
100
AcDbLine
 10
323.9999892055363
 20
1130.742678621759
 30
0.0
 11
215.9999892055363
 21
1130.742678621759
 31
0.0
  0
SOLID
  5
171
330
135
100
AcDbEntity
  8
Mitte
 62
     1
100
AcDbTrace
 10
323.9999892055363
 20
1133.076011955092
 30
0.0
 11
323.9999892055363
 21
1128.409345288426
 31
0.0
 12
337.9999892055363
 22
1130.742678621759
 32
0.0
 13
337.9999892055363
 23
1130.742678621759
 33
0.0
  0
SOLID
  5
172
330
135
100
AcDbEntity
  8
Mitte
 62
     1
100
AcDbTrace
 10
215.9999892055363
 20
1133.076011955092
 30
0.0
 11
215.9999892055363
 21
1128.409345288426
 31
0.0
 12
201.9999892055364
 22
1130.742678621759
 32
0.0
 13
201.9999892055364
 23
1130.742678621759
 33
0.0
  0
MTEXT
  5
173
330
135
100
AcDbEntity
  8
Mitte
 62
     6
100
AcDbMText
 10
269.9999892055363
 20
1144.442678621759
 30
0.0
 40
14.0
 41
0.0
 71
     5
 72
     1
  1
\A1;%%c136 [5.35"]
  7
ISOCP
 73
     1
 44
1.0
  0
POINT
  5
174
330
135
100
AcDbEntity
  8
DEFPOINTS
 62
     0
100
AcDbPoint
 10
337.9999892055363
 20
911.6946123793564
 30
-60.49999999999943
  0
POINT
  5
175
330
135
100
AcDbEntity
  8
DEFPOINTS
 62
     0
100
AcDbPoint
 10
201.9999892055364
 20
911.6946123793564
 30
-60.49999999999943
  0
POINT
  5
176
330
135
100
AcDbEntity
  8
DEFPOINTS
 62
     0
100
AcDbPoint
 10
201.9999892055364
 20
1130.742678621759
 30
0.0
  0
ENDBLK
  5
140
330
135
100
AcDbEntity
  8
0
100
AcDbBlockEnd
  0
BLOCK
  5
14B
330
141
100
AcDbEntity
  8
0
100
AcDbBlockBegin
  2
*D11
 70
     1
 10
0.0
 20
0.0
 30
0.0
  3
*D11
  1

  0
LINE
  5
142
330
141
100
AcDbEntity
  8
Mitte
 62
     1
370
    -2
100
AcDbLine
 10
352.4999985661575
 20
483.1946123850108
 30
0.0
 11
458.5733232816772
 21
483.1946123850108
 31
0.0
  0
LINE
  5
143
330
141
100
AcDbEntity
  8
Mitte
 62
     1
370
    -2
100
AcDbLine
 10
352.4999985661573
 20
373.1946123850107
 30
0.0
 11
458.5733232816771
 21
373.1946123850106
 31
0.0
  0
LINE
  5
144
330
141
100
AcDbEntity
  8
Mitte
 62
     1
370
    -2
100
AcDbLine
 10
450.5733232816772
 20
469.1946123850107
 30
0.0
 11
450.5733232816772
 21
387.1946123850106
 31
0.0
  0
SOLID
  5
145
330
141
100
AcDbEntity
  8
Mitte
 62
     1
100
AcDbTrace
 10
448.2399899483438
 20
469.1946123850107
 30
0.0
 11
452.9066566150105
 21
469.1946123850107
 31
0.0
 12
450.5733232816772
 22
483.1946123850108
 32
0.0
 13
450.5733232816772
 23
483.1946123850108
 33
0.0
  0
SOLID
  5
146
330
141
100
AcDbEntity
  8
Mitte
 62
     1
100
AcDbTrace
 10
448.2399899483438
 20
387.1946123850106
 30
0.0
 11
452.9066566150105
 21
387.1946123850106
 31
0.0
 12
450.5733232816772
 22
373.1946123850106
 32
0.0
 13
450.5733232816772
 23
373.1946123850106
 33
0.0
  0
MTEXT
  5
147
330
141
100
AcDbEntity
  8
Mitte
 62
     6
100
AcDbMText
 10
436.8733232816771
 20
428.1946123850108
 30
0.0
 40
14.0
 41
0.0
 71
     5
 72
     1
  1
\A1;110 [4.33"]
  7
ISOCP
 11
0.0000000000000001
 21
1.0
 31
0.0
 73
     1
 44
1.0
  0
POINT
  5
148
330
141
100
AcDbEntity
  8
DEFPOINTS
 62
     0
100
AcDbPoint
 10
352.4999985661575
 20
483.1946123850108
 30
-64.49999999999949
  0
POINT
  5
149
330
141
100
AcDbEntity
  8
DEFPOINTS
 62
     0
100
AcDbPoint
 10
352.4999985661573
 20
373.1946123850107
 30
-64.49999999999949
  0
POINT
  5
14A
330
141
100
AcDbEntity
  8
DEFPOINTS
 62
     0
100
AcDbPoint
 10
450.5733232816772
 20
373.1946123850106
 30
0.0
  0
ENDBLK
  5
14C
330
141
100
AcDbEntity
  8
0
100
AcDbBlockEnd
  0
BLOCK
  5
157
330
14D
100
AcDbEntity
  8
0
100
AcDbBlockBegin
  2
*D12
 70
     1
 10
0.0
 20
0.0
 30
0.0
  3
*D12
  1

  0
LINE
  5
14E
330
14D
100
AcDbEntity
  8
Mitte
 62
     1
370
    -2
100
AcDbLine
 10
-0.0000023426897542
 20
137.6946123873012
 30
0.0
 11
-0.0000023426897595
 21
50.52579845982927
 31
0.0
  0
LINE
  5
14F
330
14D
100
AcDbEntity
  8
Mitte
 62
     1
370
    -2
100
AcDbLine
 10
409.9999977282168
 20
137.6946123875097
 30
0.0
 11
409.9999977282168
 21
50.52579845982927
 31
0.0
  0
LINE
  5
150
330
14D
100
AcDbEntity
  8
Mitte
 62
     1
370
    -2
100
AcDbLine
 10
13.99999765731024
 20
58.52579845982927
 30
0.0
 11
395.9999977282168
 21
58.52579845982927
 31
0.0
  0
SOLID
  5
151
330
14D
100
AcDbEntity
  8
Mitte
 62
     1
100
AcDbTrace
 10
13.99999765731024
 20
60.85913179316261
 30
0.0
 11
13.99999765731024
 21
56.19246512649594
 31
0.0
 12
-0.000002342689759
 22
58.52579845982927
 32
0.0
 13
-0.000002342689759
 23
58.52579845982927
 33
0.0
  0
SOLID
  5
152
330
14D
100
AcDbEntity
  8
Mitte
 62
     1
100
AcDbTrace
 10
395.9999977282168
 20
60.85913179316261
 30
0.0
 11
395.9999977282168
 21
56.19246512649594
 31
0.0
 12
409.9999977282168
 22
58.52579845982927
 32
0.0
 13
409.9999977282168
 23
58.52579845982927
 33
0.0
  0
MTEXT
  5
153
330
14D
100
AcDbEntity
  8
Mitte
 62
     6
100
AcDbMText
 10
204.9999976927635
 20
72.22579845982927
 30
0.0
 40
14.0
 41
0.0
 71
     5
 72
     1
  1
\A1;410 [16.14"]
  7
ISOCP
 73
     1
 44
1.0
  0
POINT
  5
154
330
14D
100
AcDbEntity
  8
DEFPOINTS
 62
     0
100
AcDbPoint
 10
-0.0000023426897542
 20
137.6946123873012
 30
258.7508889595181
  0
POINT
  5
155
330
14D
100
AcDbEntity
  8
DEFPOINTS
 62
     0
100
AcDbPoint
 10
409.9999977282168
 20
137.6946123875097
 30
0.0
  0
POINT
  5
156
330
14D
100
AcDbEntity
  8
DEFPOINTS
 62
     0
100
AcDbPoint
 10
409.9999977282168
 20
58.52579845982927
 30
0.0
  0
ENDBLK
  5
158
330
14D
100
AcDbEntity
  8
0
100
AcDbBlockEnd
  0
BLOCK
  5
16C
330
162
100
AcDbEntity
  8
0
100
AcDbBlockBegin
  2
*D13
 70
     1
 10
0.0
 20
0.0
 30
0.0
  3
*D13
  1

  0
LINE
  5
163
330
162
100
AcDbEntity
  8
Mitte
 62
     1
370
    -2
100
AcDbLine
 10
57.49999857104126
 20
373.1946123850111
 30
0.0
 11
57.49999857104125
 21
83.16889938808845
 31
0.0
  0
LINE
  5
164
330
162
100
AcDbEntity
  8
Mitte
 62
     1
370
    -2
100
AcDbLine
 10
352.4999985661573
 20
373.1946123850108
 30
0.0
 11
352.4999985661573
 21
83.16889938808845
 31
0.0
  0
LINE
  5
165
330
162
100
AcDbEntity
  8
Mitte
 62
     1
370
    -2
100
AcDbLine
 10
71.49999857104124
 20
91.16889938808844
 30
0.0
 11
338.4999985661572
 21
91.16889938808844
 31
0.0
  0
SOLID
  5
166
330
162
100
AcDbEntity
  8
Mitte
 62
     1
100
AcDbTrace
 10
71.49999857104124
 20
93.50223272142178
 30
0.0
 11
71.49999857104124
 21
88.83556605475511
 31
0.0
 12
57.49999857104125
 22
91.16889938808844
 32
0.0
 13
57.49999857104125
 23
91.16889938808844
 33
0.0
  0
SOLID
  5
167
330
162
100
AcDbEntity
  8
Mitte
 62
     1
100
AcDbTrace
 10
338.4999985661572
 20
93.50223272142178
 30
0.0
 11
338.4999985661572
 21
88.83556605475511
 31
0.0
 12
352.4999985661573
 22
91.16889938808844
 32
0.0
 13
352.4999985661573
 23
91.16889938808844
 33
0.0
  0
MTEXT
  5
168
330
162
100
AcDbEntity
  8
Mitte
 62
     6
100
AcDbMText
 10
204.9999985685992
 20
104.8688993880884
 30
0.0
 40
14.0
 41
0.0
 71
     5
 72
     1
  1
\A1;295 [11.61"]
  7
ISOCP
 73
     1
 44
1.0
  0
POINT
  5
169
330
162
100
AcDbEntity
  8
DEFPOINTS
 62
     0
100
AcDbPoint
 10
57.49999857104126
 20
373.1946123850111
 30
-64.49999999999949
  0
POINT
  5
16A
330
162
100
AcDbEntity
  8
DEFPOINTS
 62
     0
100
AcDbPoint
 10
352.4999985661573
 20
373.1946123850108
 30
-64.49999999999949
  0
POINT
  5
16B
330
162
100
AcDbEntity
  8
DEFPOINTS
 62
     0
100
AcDbPoint
 10
352.4999985661573
 20
91.16889938808844
 30
0.0
  0
ENDBLK
  5
16D
330
162
100
AcDbEntity
  8
0
100
AcDbBlockEnd
  0
BLOCK
  5
181
330
177
100
AcDbEntity
  8
0
100
AcDbBlockBegin
  2
*D14
 70
     1
 10
0.0
 20
0.0
 30
0.0
  3
*D14
  1

  0
LINE
  5
178
330
177
100
AcDbEntity
  8
Mitte
 62
     1
370
    -2
100
AcDbLine
 10
45.00000326724534
 20
1013.694612385539
 30
0.0
 11
45.00000326724535
 21
1175.214787656946
 31
0.0
  0
LINE
  5
179
330
177
100
AcDbEntity
  8
Mitte
 62
     1
370
    -2
100
AcDbLine
 10
365.0000032672455
 20
994.433217273775
 30
0.0
 11
365.0000032672455
 21
1175.214787656946
 31
0.0
  0
LINE
  5
17A
330
177
100
AcDbEntity
  8
Mitte
 62
     1
370
    -2
100
AcDbLine
 10
59.00000326724535
 20
1167.214787656946
 30
0.0
 11
351.0000032672455
 21
1167.214787656946
 31
0.0
  0
SOLID
  5
17B
330
177
100
AcDbEntity
  8
Mitte
 62
     1
100
AcDbTrace
 10
59.00000326724535
 20
1169.548120990279
 30
0.0
 11
59.00000326724535
 21
1164.881454323613
 31
0.0
 12
45.00000326724535
 22
1167.214787656946
 32
0.0
 13
45.00000326724535
 23
1167.214787656946
 33
0.0
  0
SOLID
  5
17C
330
177
100
AcDbEntity
  8
Mitte
 62
     1
100
AcDbTrace
 10
351.0000032672455
 20
1169.548120990279
 30
0.0
 11
351.0000032672455
 21
1164.881454323613
 31
0.0
 12
365.0000032672455
 22
1167.214787656946
 32
0.0
 13
365.0000032672455
 23
1167.214787656946
 33
0.0
  0
MTEXT
  5
17D
330
177
100
AcDbEntity
  8
Mitte
 62
     6
100
AcDbMText
 10
205.0000032672454
 20
1180.914787656946
 30
0.0
 40
14.0
 41
0.0
 71
     5
 72
     1
  1
\A1;320 [12.6"]
  7
ISOCP
 73
     1
 44
1.0
  0
POINT
  5
17E
330
177
100
AcDbEntity
  8
DEFPOINTS
 62
     0
100
AcDbPoint
 10
45.00000326724534
 20
1013.694612385539
 30
-64.4999999999997
  0
POINT
  5
17F
330
177
100
AcDbEntity
  8
DEFPOINTS
 62
     0
100
AcDbPoint
 10
365.0000032672455
 20
994.433217273775
 30
-64.49999999999971
  0
POINT
  5
180
330
177
100
AcDbEntity
  8
DEFPOINTS
 62
     0
100
AcDbPoint
 10
365.0000032672455
 20
1167.214787656946
 30
0.0
  0
ENDBLK
  5
182
330
177
100
AcDbEntity
  8
0
100
AcDbBlockEnd
  0
BLOCK
  5
18D
330
183
100
AcDbEntity
  8
0
100
AcDbBlockBegin
  2
*D15
 70
     1
 10
0.0
 20
0.0
 30
0.0
  3
*D15
  1

  0
LINE
  5
18F
330
183
100
AcDbEntity
  8
Mitte
 62
     1
370
    -2
100
AcDbLine
 10
-0.0000023520414061
 20
1097.694612387509
 30
0.0
 11
-0.0000023520413995
 21
1205.870927322159
 31
0.0
  0
LINE
  5
190
330
183
100
AcDbEntity
  8
Mitte
 62
     1
370
    -2
100
AcDbLine
 10
269.9999892055363
 20
1001.772395704394
 30
0.0
 11
269.9999892055363
 21
1205.870927322159
 31
0.0
  0
LINE
  5
191
330
183
100
AcDbEntity
  8
Mitte
 62
     1
370
    -2
100
AcDbLine
 10
13.99999764795859
 20
1197.870927322159
 30
0.0
 11
255.9999892055364
 21
1197.870927322159
 31
0.0
  0
SOLID
  5
192
330
183
100
AcDbEntity
  8
Mitte
 62
     1
100
AcDbTrace
 10
13.99999764795859
 20
1200.204260655493
 30
0.0
 11
13.99999764795859
 21
1195.537593988826
 31
0.0
 12
-0.0000023520414
 22
1197.870927322159
 32
0.0
 13
-0.0000023520414
 23
1197.870927322159
 33
0.0
  0
SOLID
  5
193
330
183
100
AcDbEntity
  8
Mitte
 62
     1
100
AcDbTrace
 10
255.9999892055364
 20
1200.204260655493
 30
0.0
 11
255.9999892055364
 21
1195.537593988826
 31
0.0
 12
269.9999892055363
 22
1197.870927322159
 32
0.0
 13
269.9999892055363
 23
1197.870927322159
 33
0.0
  0
MTEXT
  5
194
330
183
100
AcDbEntity
  8
Mitte
 62
     6
100
AcDbMText
 10
134.9999934267475
 20
1211.570927322159
 30
0.0
 40
14.0
 41
0.0
 71
     5
 72
     1
  1
\A1;270 [10.63"]
  7
ISOCP
 73
     1
 44
1.0
  0
POINT
  5
195
330
183
100
AcDbEntity
  8
DEFPOINTS
 62
     0
100
AcDbPoint
 10
-0.0000023520414061
 20
1097.694612387509
 30
0.0
  0
POINT
  5
196
330
183
100
AcDbEntity
  8
DEFPOINTS
 62
     0
100
AcDbPoint
 10
269.9999892055363
 20
1001.772395704394
 30
-60.49999999999943
  0
POINT
  5
197
330
183
100
AcDbEntity
  8
DEFPOINTS
 62
     0
100
AcDbPoint
 10
269.9999892055363
 20
1197.870927322159
 30
0.0
  0
ENDBLK
  5
18E
330
183
100
AcDbEntity
  8
0
100
AcDbBlockEnd
  0
ENDSEC
  0
SECTION
  2
ENTITIES
  0
LWPOLYLINE
  5
10B
330
1F
100
AcDbEntity
  8
Ausschnitt
 62
     7
100
AcDbPolyline
 90
        8
 70
     1
 43
0.0
 38
-64.4999999999997
 10
45.00000326724534
 20
371.694612385539
 10
45.00000326724534
 20
1013.694612385539
 42
-0.4142135623730951
 10
55.00000326724535
 20
1023.694612385539
 10
355.0000032672455
 20
1023.694612385539
 42
-0.4142135623730951
 10
365.0000032672455
 20
1013.694612385539
 10
365.0000032672453
 20
371.694612385539
 42
-0.4142135623730992
 10
355.0000032672453
 20
361.694612385539
 10
55.00000326724535
 20
361.694612385539
 42
-0.4142135623730951
  0
CIRCLE
  5
110
330
1F
100
AcDbEntity
  8
Ausschnitt
100
AcDbCircle
 10
-29.99999858040407
 20
416.6946123855389
 30
64.49999999999945
 40
4.0
210
-0.0000000000000004
220
-0.0000000000000009
230
-1.0
  0
CIRCLE
  5
11F
330
1F
100
AcDbEntity
  8
Ausschnitt
100
AcDbCircle
 10
-29.99999858040419
 20
978.6946123855384
 30
64.49999999999881
 40
4.0
210
-0.0000000000000004
220
-0.0000000000000009
230
-1.0
  0
CIRCLE
  5
125
330
1F
100
AcDbEntity
  8
Ausschnitt
100
AcDbCircle
 10
-380.0000032672453
 20
416.6946123855391
 30
64.49999999999921
 40
4.0
210
-0.0000000000000004
220
-0.0000000000000009
230
-1.0
  0
CIRCLE
  5
127
330
1F
100
AcDbEntity
  8
Ausschnitt
100
AcDbCircle
 10
-380.0000032672455
 20
978.6946123855384
 30
64.49999999999864
 40
4.0
210
-0.0000000000000004
220
-0.0000000000000009
230
-1.0
  0
ENDSEC
  0
SECTION
  2
OBJECTS
  0
DICTIONARY
  5
C
330
0
100
AcDbDictionary
281
     1
  3
ACAD_GROUP
350
D
  3
ACAD_LAYOUT
350
1A
  3
ACAD_MLINESTYLE
350
17
  3
ACAD_PLOTSETTINGS
350
19
  3
ACAD_PLOTSTYLENAME
350
E
  3
AcDbVariableDictionary
350
66
  3
SPI_AHRENSBURG_DICT
350
198
  0
DICTIONARY
  5
D0
330
2
100
AcDbDictionary
280
     1
281
     1
  3
ACAD_LAYERSTATES
360
D1
  0
DICTIONARY
  5
D
102
{ACAD_REACTORS
330
C
102
}
330
C
100
AcDbDictionary
281
     1
  0
DICTIONARY
  5
1A
102
{ACAD_REACTORS
330
C
102
}
330
C
100
AcDbDictionary
281
     1
  3
Layout1
350
59
  3
Layout2
350
5E
  3
Model
350
22
  0
DICTIONARY
  5
17
102
{ACAD_REACTORS
330
C
102
}
330
C
100
AcDbDictionary
281
     1
  3
Standard
350
18
  0
DICTIONARY
  5
19
102
{ACAD_REACTORS
330
C
102
}
330
C
100
AcDbDictionary
281
     1
  0
ACDBDICTIONARYWDFLT
  5
E
102
{ACAD_REACTORS
330
C
102
}
330
C
100
AcDbDictionary
281
     1
  3
Normal
350
F
100
AcDbDictionaryWithDefault
340
F
  0
DICTIONARY
  5
66
102
{ACAD_REACTORS
330
C
102
}
330
C
100
AcDbDictionary
281
     1
  3
DIMASSOC
350
67
  3
HIDETEXT
350
6B
  0
DICTIONARY
  5
198
102
{ACAD_REACTORS
330
C
102
}
330
C
100
AcDbDictionary
281
     1
  3
SPI_CFGPARAM
350
199
  0
DICTIONARY
  5
D1
102
{ACAD_REACTORS
330
D0
102
}
330
D0
100
AcDbDictionary
281
     1
  0
LAYOUT
  5
59
102
{ACAD_REACTORS
330
1A
102
}
330
1A
100
AcDbPlotSettings
  1

  2
None
  4

  6

 40
0.0
 41
0.0
 42
0.0
 43
0.0
 44
0.0
 45
0.0
 46
0.0
 47
0.0
 48
0.0
 49
0.0
140
0.0
141
0.0
142
1.0
143
1.0
 70
   688
 72
     0
 73
     0
 74
     5
  7

 75
    16
147
1.0
148
0.0
149
0.0
100
AcDbLayout
  1
Layout1
 70
     1
 71
     1
 10
0.0
 20
0.0
 11
12.0
 21
9.0
 12
0.0
 22
0.0
 32
0.0
 14
0.0
 24
0.0
 34
0.0
 15
0.0
 25
0.0
 35
0.0
146
0.0
 13
0.0
 23
0.0
 33
0.0
 16
1.0
 26
0.0
 36
0.0
 17
0.0
 27
1.0
 37
0.0
 76
     0
330
58
  0
LAYOUT
  5
5E
102
{ACAD_REACTORS
330
1A
102
}
330
1A
100
AcDbPlotSettings
  1

  2
None
  4

  6

 40
0.0
 41
0.0
 42
0.0
 43
0.0
 44
0.0
 45
0.0
 46
0.0
 47
0.0
 48
0.0
 49
0.0
140
0.0
141
0.0
142
1.0
143
1.0
 70
   688
 72
     0
 73
     0
 74
     5
  7

 75
    16
147
1.0
148
0.0
149
0.0
100
AcDbLayout
  1
Layout2
 70
     1
 71
     2
 10
0.0
 20
0.0
 11
12.0
 21
9.0
 12
0.0
 22
0.0
 32
0.0
 14
0.0
 24
0.0
 34
0.0
 15
0.0
 25
0.0
 35
0.0
146
0.0
 13
0.0
 23
0.0
 33
0.0
 16
1.0
 26
0.0
 36
0.0
 17
0.0
 27
1.0
 37
0.0
 76
     0
330
5D
  0
LAYOUT
  5
22
102
{ACAD_REACTORS
330
1A
102
}
330
1A
100
AcDbPlotSettings
  1

  2
none_device
  4
ANSI_A_(8.50_x_11.00_Inches)
  6

 40
6.349999904632568
 41
19.04999923706054
 42
6.350006103515625
 43
19.04998779296875
 44
215.8999938964843
 45
279.3999938964843
 46
0.0
 47
0.0
 48
0.0
 49
0.0
140
0.0
141
0.0
142
1.0
143
2.584895464708373
 70
 11952
 72
     0
 73
     1
 74
     0
  7

 75
     0
147
0.3868628397755418
148
0.0
149
0.0
100
AcDbLayout
  1
Model
 70
     1
 71
     0
 10
0.0
 20
0.0
 11
12.0
 21
9.0
 12
0.0
 22
0.0
 32
0.0
 14
0.0
 24
0.0
 34
0.0
 15
0.0
 25
0.0
 35
0.0
146
0.0
 13
0.0
 23
0.0
 33
0.0
 16
1.0
 26
0.0
 36
0.0
 17
0.0
 27
1.0
 37
0.0
 76
     0
330
1F
  0
MLINESTYLE
  5
18
102
{ACAD_REACTORS
330
17
102
}
330
17
100
AcDbMlineStyle
  2
STANDARD
 70
     0
  3

 62
   256
 51
90.0
 52
90.0
 71
     2
 49
0.5
 62
   256
  6
BYLAYER
 49
-0.5
 62
   256
  6
BYLAYER
  0
ACDBPLACEHOLDER
  5
F
102
{ACAD_REACTORS
330
E
102
}
330
E
  0
DICTIONARYVAR
  5
67
102
{ACAD_REACTORS
330
66
102
}
330
66
100
DictionaryVariables
280
     0
  1
2
  0
DICTIONARYVAR
  5
6B
102
{ACAD_REACTORS
330
66
102
}
330
66
100
DictionaryVariables
280
     0
  1
1
  0
DICTIONARY
  5
199
102
{ACAD_REACTORS
330
198
102
}
330
198
100
AcDbDictionary
281
     1
  3
ACBASE
350
223
  3
ACTKBASE
350
20B
  3
ACUNFOLDPROPS
350
19A
  0
DICTIONARY
  5
223
102
{ACAD_REACTORS
330
199
102
}
330
199
100
AcDbDictionary
281
     1
  3
MEAS_DEFINED
350
224
  0
DICTIONARY
  5
20B
102
{ACAD_REACTORS
330
199
102
}
330
199
100
AcDbDictionary
281
     1
  3
AUTO_UPDATE
350
218
  3
CLEAR_PS
350
216
  3
CONSTR_COLOUR
350
221
  3
CONSTR_LAYER
350
222
  3
FRAME_LAYER
350
220
  3
HIDDENLINE_TYP
350
21F
  3
HIDE_FRAME
350
217
  3
LCS_COLOUR
350
213
  3
LCS_LAYER
350
214
  3
LCS_SIZE
350
211
  3
LCS_SIZE-I
350
212
  3
LIGHT_COLOUR1
350
20F
  3
LIGHT_COLOUR2
350
20E
  3
LIGHT_LAYER
350
210
  3
LIGHT_SCALE
350
20D
  3
LIGHT_SEGMENTS
350
20C
  3
LTYPE_COLOUR
350
21C
  3
LTYPE_FACTOR
350
21B
  3
TANGENTIAL_EDGES
350
21E
  3
UPDATE_INIT
350
21D
  3
USE_LTSCALE
350
21A
  3
USE_WCS
350
215
  3
VIEW_SCALE
350
219
  0
DICTIONARY
  5
19A
102
{ACAD_REACTORS
330
199
102
}
330
199
100
AcDbDictionary
281
     1
  3
COLOUR_BENDINGZONE_DOWN
350
1C6
  3
COLOUR_BENDINGZONE_UP
350
1CB
  3
COLOUR_BENDLINE_DOWN
350
1BC
  3
COLOUR_BENDLINE_UP
350
1C1
  3
COLOUR_INNER_BORDER_DOWN
350
1F8
  3
COLOUR_INNER_BORDER_UP
350
1FD
  3
COLOUR_INNER_ERROR_DOWN
350
1E4
  3
COLOUR_INNER_ERROR_UP
350
1E9
  3
COLOUR_INNER_TOLERANCE_DOWN
350
1D0
  3
COLOUR_INNER_TOLERANCE_UP
350
1D5
  3
COLOUR_OUTER_BORDER_DOWN
350
202
  3
COLOUR_OUTER_BORDER_UP
350
207
  3
COLOUR_OUTER_ERROR_DOWN
350
1EE
  3
COLOUR_OUTER_ERROR_UP
350
1F3
  3
COLOUR_OUTER_TOLERANCE_DOWN
350
1DA
  3
COLOUR_OUTER_TOLERANCE_UP
350
1DF
  3
COLOUR_TOOL_ORIENTATION_MARKS
350
19E
  3
COLOUR_TOOL_PUNCH_NORMAL
350
1B7
  3
COLOUR_TOOL_STAMP_DASHED_DOWN
350
1A3
  3
COLOUR_TOOL_STAMP_DASHED_UP
350
1A8
  3
COLOUR_TOOL_STAMP_NORMAL_DOWN
350
1AD
  3
COLOUR_TOOL_STAMP_NORMAL_UP
350
1B2
  3
LAYER_BENDINGZONE_DOWN
350
1C9
  3
LAYER_BENDINGZONE_UP
350
1CE
  3
LAYER_BENDLINE_DOWN
350
1BF
  3
LAYER_BENDLINE_UP
350
1C4
  3
LAYER_INNER_BORDER_DOWN
350
1FB
  3
LAYER_INNER_BORDER_UP
350
200
  3
LAYER_INNER_ERROR_DOWN
350
1E7
  3
LAYER_INNER_ERROR_UP
350
1EC
  3
LAYER_INNER_TOLERANCE_DOWN
350
1D3
  3
LAYER_INNER_TOLERANCE_UP
350
1D8
  3
LAYER_OUTER_BORDER_DOWN
350
205
  3
LAYER_OUTER_BORDER_UP
350
20A
  3
LAYER_OUTER_ERROR_DOWN
350
1F1
  3
LAYER_OUTER_ERROR_UP
350
1F6
  3
LAYER_OUTER_TOLERANCE_DOWN
350
1DD
  3
LAYER_OUTER_TOLERANCE_UP
350
1E2
  3
LAYER_TOOL_ORIENTATION_MARKS
350
1A1
  3
LAYER_TOOL_PUNCH_NORMAL
350
1BA
  3
LAYER_TOOL_STAMP_DASHED_DOWN
350
1A6
  3
LAYER_TOOL_STAMP_DASHED_UP
350
1AB
  3
LAYER_TOOL_STAMP_NORMAL_DOWN
350
1B0
  3
LAYER_TOOL_STAMP_NORMAL_UP
350
1B5
  3
LINETYPE_BENDINGZONE_DOWN
350
1C8
  3
LINETYPE_BENDINGZONE_UP
350
1CD
  3
LINETYPE_BENDLINE_DOWN
350
1BE
  3
LINETYPE_BENDLINE_UP
350
1C3
  3
LINETYPE_INNER_BORDER_DOWN
350
1FA
  3
LINETYPE_INNER_BORDER_UP
350
1FF
  3
LINETYPE_INNER_ERROR_DOWN
350
1E6
  3
LINETYPE_INNER_ERROR_UP
350
1EB
  3
LINETYPE_INNER_TOLERANCE_DOWN
350
1D2
  3
LINETYPE_INNER_TOLERANCE_UP
350
1D7
  3
LINETYPE_OUTER_BORDER_DOWN
350
204
  3
LINETYPE_OUTER_BORDER_UP
350
209
  3
LINETYPE_OUTER_ERROR_DOWN
350
1F0
  3
LINETYPE_OUTER_ERROR_UP
350
1F5
  3
LINETYPE_OUTER_TOLERANCE_DOWN
350
1DC
  3
LINETYPE_OUTER_TOLERANCE_UP
350
1E1
  3
LINETYPE_TOOL_ORIENTATION_MARKS
350
1A0
  3
LINETYPE_TOOL_PUNCH_NORMAL
350
1B9
  3
LINETYPE_TOOL_STAMP_DASHED_DOWN
350
1A5
  3
LINETYPE_TOOL_STAMP_DASHED_UP
350
1AA
  3
LINETYPE_TOOL_STAMP_NORMAL_DOWN
350
1AF
  3
LINETYPE_TOOL_STAMP_NORMAL_UP
350
1B4
  3
LINEWEIGHT_BENDINGZONE_DOWN
350
1C5
  3
LINEWEIGHT_BENDINGZONE_UP
350
1CA
  3
LINEWEIGHT_BENDLINE_DOWN
350
1BB
  3
LINEWEIGHT_BENDLINE_UP
350
1C0
  3
LINEWEIGHT_INNER_BORDER_DOWN
350
1F7
  3
LINEWEIGHT_INNER_BORDER_UP
350
1FC
  3
LINEWEIGHT_INNER_ERROR_DOWN
350
1E3
  3
LINEWEIGHT_INNER_ERROR_UP
350
1E8
  3
LINEWEIGHT_INNER_TOLERANCE_DOWN
350
1CF
  3
LINEWEIGHT_INNER_TOLERANCE_UP
350
1D4
  3
LINEWEIGHT_OUTER_BORDER_DOWN
350
201
  3
LINEWEIGHT_OUTER_BORDER_UP
350
206
  3
LINEWEIGHT_OUTER_ERROR_DOWN
350
1ED
  3
LINEWEIGHT_OUTER_ERROR_UP
350
1F2
  3
LINEWEIGHT_OUTER_TOLERANCE_DOWN
350
1D9
  3
LINEWEIGHT_OUTER_TOLERANCE_UP
350
1DE
  3
LINEWEIGHT_TOOL_ORIENTATION_MARKS
350
19D
  3
LINEWEIGHT_TOOL_PUNCH_NORMAL
350
1B6
  3
LINEWEIGHT_TOOL_STAMP_DASHED_DOWN
350
1A2
  3
LINEWEIGHT_TOOL_STAMP_DASHED_UP
350
1A7
  3
LINEWEIGHT_TOOL_STAMP_NORMAL_DOWN
350
1AC
  3
LINEWEIGHT_TOOL_STAMP_NORMAL_UP
350
1B1
  3
LTSCALE_BENDINGZONE_DOWN
350
1C7
  3
LTSCALE_BENDINGZONE_UP
350
1CC
  3
LTSCALE_BENDLINE_DOWN
350
1BD
  3
LTSCALE_BENDLINE_UP
350
1C2
  3
LTSCALE_INNER_BORDER_DOWN
350
1F9
  3
LTSCALE_INNER_BORDER_UP
350
1FE
  3
LTSCALE_INNER_ERROR_DOWN
350
1E5
  3
LTSCALE_INNER_ERROR_UP
350
1EA
  3
LTSCALE_INNER_TOLERANCE_DOWN
350
1D1
  3
LTSCALE_INNER_TOLERANCE_UP
350
1D6
  3
LTSCALE_OUTER_BORDER_DOWN
350
203
  3
LTSCALE_OUTER_BORDER_UP
350
208
  3
LTSCALE_OUTER_ERROR_DOWN
350
1EF
  3
LTSCALE_OUTER_ERROR_UP
350
1F4
  3
LTSCALE_OUTER_TOLERANCE_DOWN
350
1DB
  3
LTSCALE_OUTER_TOLERANCE_UP
350
1E0
  3
LTSCALE_TOOL_ORIENTATION_MARKS
350
19F
  3
LTSCALE_TOOL_PUNCH_NORMAL
350
1B8
  3
LTSCALE_TOOL_STAMP_DASHED_DOWN
350
1A4
  3
LTSCALE_TOOL_STAMP_DASHED_UP
350
1A9
  3
LTSCALE_TOOL_STAMP_NORMAL_DOWN
350
1AE
  3
LTSCALE_TOOL_STAMP_NORMAL_UP
350
1B3
  3
UNF_INSERT_LAYER_NAME
350
19C
  3
UNF_PRESSBRAKE_MODE
350
19B
  0
XRECORD
  5
224
102
{ACAD_REACTORS
330
223
102
}
330
223
100
AcDbXrecord
280
     1
 70
     1
  0
XRECORD
  5
218
102
{ACAD_REACTORS
330
20B
102
}
330
20B
100
AcDbXrecord
280
     1
 70
     1
  0
XRECORD
  5
216
102
{ACAD_REACTORS
330
20B
102
}
330
20B
100
AcDbXrecord
280
     1
 70
     1
  0
XRECORD
  5
221
102
{ACAD_REACTORS
330
20B
102
}
330
20B
100
AcDbXrecord
280
     1
 90
        6
  0
XRECORD
  5
222
102
{ACAD_REACTORS
330
20B
102
}
330
20B
100
AcDbXrecord
280
     1
  1
SPI_CONSTR
  0
XRECORD
  5
220
102
{ACAD_REACTORS
330
20B
102
}
330
20B
100
AcDbXrecord
280
     1
  1
SPI_FRAME
  0
XRECORD
  5
21F
102
{ACAD_REACTORS
330
20B
102
}
330
20B
100
AcDbXrecord
280
     1
  1
VERDECKT
  0
XRECORD
  5
217
102
{ACAD_REACTORS
330
20B
102
}
330
20B
100
AcDbXrecord
280
     1
 70
     1
  0
XRECORD
  5
213
102
{ACAD_REACTORS
330
20B
102
}
330
20B
100
AcDbXrecord
280
     1
 90
        2
  0
XRECORD
  5
214
102
{ACAD_REACTORS
330
20B
102
}
330
20B
100
AcDbXrecord
280
     1
  1
SPI_LCS
  0
XRECORD
  5
211
102
{ACAD_REACTORS
330
20B
102
}
330
20B
100
AcDbXrecord
280
     1
 39
25.0
  0
XRECORD
  5
212
102
{ACAD_REACTORS
330
20B
102
}
330
20B
100
AcDbXrecord
280
     1
 39
1.0
  0
XRECORD
  5
20F
102
{ACAD_REACTORS
330
20B
102
}
330
20B
100
AcDbXrecord
280
     1
 90
        9
  0
XRECORD
  5
20E
102
{ACAD_REACTORS
330
20B
102
}
330
20B
100
AcDbXrecord
280
     1
 90
        8
  0
XRECORD
  5
210
102
{ACAD_REACTORS
330
20B
102
}
330
20B
100
AcDbXrecord
280
     1
  1
SPI_LIGHT
  0
XRECORD
  5
20D
102
{ACAD_REACTORS
330
20B
102
}
330
20B
100
AcDbXrecord
280
     1
 40
1.199999999999999
  0
XRECORD
  5
20C
102
{ACAD_REACTORS
330
20B
102
}
330
20B
100
AcDbXrecord
280
     1
 90
       12
  0
XRECORD
  5
21C
102
{ACAD_REACTORS
330
20B
102
}
330
20B
100
AcDbXrecord
280
     1
 90
        1
  0
XRECORD
  5
21B
102
{ACAD_REACTORS
330
20B
102
}
330
20B
100
AcDbXrecord
280
     1
 40
0.035
  0
XRECORD
  5
21E
102
{ACAD_REACTORS
330
20B
102
}
330
20B
100
AcDbXrecord
280
     1
 70
     1
  0
XRECORD
  5
21D
102
{ACAD_REACTORS
330
20B
102
}
330
20B
100
AcDbXrecord
280
     1
 70
     1
  0
XRECORD
  5
21A
102
{ACAD_REACTORS
330
20B
102
}
330
20B
100
AcDbXrecord
280
     1
 70
     1
  0
XRECORD
  5
215
102
{ACAD_REACTORS
330
20B
102
}
330
20B
100
AcDbXrecord
280
     1
 70
     0
  0
XRECORD
  5
219
102
{ACAD_REACTORS
330
20B
102
}
330
20B
100
AcDbXrecord
280
     1
 40
0.2
  0
XRECORD
  5
1C6
102
{ACAD_REACTORS
330
19A
102
}
330
19A
100
AcDbXrecord
280
     1
 90
        3
  0
XRECORD
  5
1CB
102
{ACAD_REACTORS
330
19A
102
}
330
19A
100
AcDbXrecord
280
     1
 90
        3
  0
XRECORD
  5
1BC
102
{ACAD_REACTORS
330
19A
102
}
330
19A
100
AcDbXrecord
280
     1
 90
        5
  0
XRECORD
  5
1C1
102
{ACAD_REACTORS
330
19A
102
}
330
19A
100
AcDbXrecord
280
     1
 90
        4
  0
XRECORD
  5
1F8
102
{ACAD_REACTORS
330
19A
102
}
330
19A
100
AcDbXrecord
280
     1
 90
        7
  0
XRECORD
  5
1FD
102
{ACAD_REACTORS
330
19A
102
}
330
19A
100
AcDbXrecord
280
     1
 90
        7
  0
XRECORD
  5
1E4
102
{ACAD_REACTORS
330
19A
102
}
330
19A
100
AcDbXrecord
280
     1
 90
        1
  0
XRECORD
  5
1E9
102
{ACAD_REACTORS
330
19A
102
}
330
19A
100
AcDbXrecord
280
     1
 90
        1
  0
XRECORD
  5
1D0
102
{ACAD_REACTORS
330
19A
102
}
330
19A
100
AcDbXrecord
280
     1
 90
        2
  0
XRECORD
  5
1D5
102
{ACAD_REACTORS
330
19A
102
}
330
19A
100
AcDbXrecord
280
     1
 90
        2
  0
XRECORD
  5
202
102
{ACAD_REACTORS
330
19A
102
}
330
19A
100
AcDbXrecord
280
     1
 90
        7
  0
XRECORD
  5
207
102
{ACAD_REACTORS
330
19A
102
}
330
19A
100
AcDbXrecord
280
     1
 90
        7
  0
XRECORD
  5
1EE
102
{ACAD_REACTORS
330
19A
102
}
330
19A
100
AcDbXrecord
280
     1
 90
        1
  0
XRECORD
  5
1F3
102
{ACAD_REACTORS
330
19A
102
}
330
19A
100
AcDbXrecord
280
     1
 90
        1
  0
XRECORD
  5
1DA
102
{ACAD_REACTORS
330
19A
102
}
330
19A
100
AcDbXrecord
280
     1
 90
        2
  0
XRECORD
  5
1DF
102
{ACAD_REACTORS
330
19A
102
}
330
19A
100
AcDbXrecord
280
     1
 90
        2
  0
XRECORD
  5
19E
102
{ACAD_REACTORS
330
19A
102
}
330
19A
100
AcDbXrecord
280
     1
 90
        4
  0
XRECORD
  5
1B7
102
{ACAD_REACTORS
330
19A
102
}
330
19A
100
AcDbXrecord
280
     1
 90
        7
  0
XRECORD
  5
1A3
102
{ACAD_REACTORS
330
19A
102
}
330
19A
100
AcDbXrecord
280
     1
 90
        3
  0
XRECORD
  5
1A8
102
{ACAD_REACTORS
330
19A
102
}
330
19A
100
AcDbXrecord
280
     1
 90
        2
  0
XRECORD
  5
1AD
102
{ACAD_REACTORS
330
19A
102
}
330
19A
100
AcDbXrecord
280
     1
 90
        7
  0
XRECORD
  5
1B2
102
{ACAD_REACTORS
330
19A
102
}
330
19A
100
AcDbXrecord
280
     1
 90
        7
  0
XRECORD
  5
1C9
102
{ACAD_REACTORS
330
19A
102
}
330
19A
100
AcDbXrecord
280
     1
  1
SPI_UNF-L
  0
XRECORD
  5
1CE
102
{ACAD_REACTORS
330
19A
102
}
330
19A
100
AcDbXrecord
280
     1
  1
SPI_UNF-U
  0
XRECORD
  5
1BF
102
{ACAD_REACTORS
330
19A
102
}
330
19A
100
AcDbXrecord
280
     1
  1
SPI_UNF-B
  0
XRECORD
  5
1C4
102
{ACAD_REACTORS
330
19A
102
}
330
19A
100
AcDbXrecord
280
     1
  1
SPI_UNF-B
  0
XRECORD
  5
1FB
102
{ACAD_REACTORS
330
19A
102
}
330
19A
100
AcDbXrecord
280
     1
  1
SPI_UNF-L
  0
XRECORD
  5
200
102
{ACAD_REACTORS
330
19A
102
}
330
19A
100
AcDbXrecord
280
     1
  1
SPI_UNF-U
  0
XRECORD
  5
1E7
102
{ACAD_REACTORS
330
19A
102
}
330
19A
100
AcDbXrecord
280
     1
  1
SPI_UNF-L
  0
XRECORD
  5
1EC
102
{ACAD_REACTORS
330
19A
102
}
330
19A
100
AcDbXrecord
280
     1
  1
SPI_UNF-U
  0
XRECORD
  5
1D3
102
{ACAD_REACTORS
330
19A
102
}
330
19A
100
AcDbXrecord
280
     1
  1
SPI_UNF-L
  0
XRECORD
  5
1D8
102
{ACAD_REACTORS
330
19A
102
}
330
19A
100
AcDbXrecord
280
     1
  1
SPI_UNF-U
  0
XRECORD
  5
205
102
{ACAD_REACTORS
330
19A
102
}
330
19A
100
AcDbXrecord
280
     1
  1
SPI_UNF-L
  0
XRECORD
  5
20A
102
{ACAD_REACTORS
330
19A
102
}
330
19A
100
AcDbXrecord
280
     1
  1
SPI_UNF-U
  0
XRECORD
  5
1F1
102
{ACAD_REACTORS
330
19A
102
}
330
19A
100
AcDbXrecord
280
     1
  1
SPI_UNF-L
  0
XRECORD
  5
1F6
102
{ACAD_REACTORS
330
19A
102
}
330
19A
100
AcDbXrecord
280
     1
  1
SPI_UNF-U
  0
XRECORD
  5
1DD
102
{ACAD_REACTORS
330
19A
102
}
330
19A
100
AcDbXrecord
280
     1
  1
SPI_UNF-L
  0
XRECORD
  5
1E2
102
{ACAD_REACTORS
330
19A
102
}
330
19A
100
AcDbXrecord
280
     1
  1
SPI_UNF-U
  0
XRECORD
  5
1A1
102
{ACAD_REACTORS
330
19A
102
}
330
19A
100
AcDbXrecord
280
     1
  1
SPI_UNF-U
  0
XRECORD
  5
1BA
102
{ACAD_REACTORS
330
19A
102
}
330
19A
100
AcDbXrecord
280
     1
  1
SPI_UNF-U
  0
XRECORD
  5
1A6
102
{ACAD_REACTORS
330
19A
102
}
330
19A
100
AcDbXrecord
280
     1
  1
SPI_UNF-U
  0
XRECORD
  5
1AB
102
{ACAD_REACTORS
330
19A
102
}
330
19A
100
AcDbXrecord
280
     1
  1
SPI_UNF-U
  0
XRECORD
  5
1B0
102
{ACAD_REACTORS
330
19A
102
}
330
19A
100
AcDbXrecord
280
     1
  1
SPI_UNF-U
  0
XRECORD
  5
1B5
102
{ACAD_REACTORS
330
19A
102
}
330
19A
100
AcDbXrecord
280
     1
  1
SPI_UNF-U
  0
XRECORD
  5
1C8
102
{ACAD_REACTORS
330
19A
102
}
330
19A
100
AcDbXrecord
280
     1
  1
BYLAYER
  0
XRECORD
  5
1CD
102
{ACAD_REACTORS
330
19A
102
}
330
19A
100
AcDbXrecord
280
     1
  1
BYLAYER
  0
XRECORD
  5
1BE
102
{ACAD_REACTORS
330
19A
102
}
330
19A
100
AcDbXrecord
280
     1
  1
BYLAYER
  0
XRECORD
  5
1C3
102
{ACAD_REACTORS
330
19A
102
}
330
19A
100
AcDbXrecord
280
     1
  1
BYLAYER
  0
XRECORD
  5
1FA
102
{ACAD_REACTORS
330
19A
102
}
330
19A
100
AcDbXrecord
280
     1
  1
BYLAYER
  0
XRECORD
  5
1FF
102
{ACAD_REACTORS
330
19A
102
}
330
19A
100
AcDbXrecord
280
     1
  1
BYLAYER
  0
XRECORD
  5
1E6
102
{ACAD_REACTORS
330
19A
102
}
330
19A
100
AcDbXrecord
280
     1
  1
BYLAYER
  0
XRECORD
  5
1EB
102
{ACAD_REACTORS
330
19A
102
}
330
19A
100
AcDbXrecord
280
     1
  1
BYLAYER
  0
XRECORD
  5
1D2
102
{ACAD_REACTORS
330
19A
102
}
330
19A
100
AcDbXrecord
280
     1
  1
BYLAYER
  0
XRECORD
  5
1D7
102
{ACAD_REACTORS
330
19A
102
}
330
19A
100
AcDbXrecord
280
     1
  1
BYLAYER
  0
XRECORD
  5
204
102
{ACAD_REACTORS
330
19A
102
}
330
19A
100
AcDbXrecord
280
     1
  1
BYLAYER
  0
XRECORD
  5
209
102
{ACAD_REACTORS
330
19A
102
}
330
19A
100
AcDbXrecord
280
     1
  1
BYLAYER
  0
XRECORD
  5
1F0
102
{ACAD_REACTORS
330
19A
102
}
330
19A
100
AcDbXrecord
280
     1
  1
BYLAYER
  0
XRECORD
  5
1F5
102
{ACAD_REACTORS
330
19A
102
}
330
19A
100
AcDbXrecord
280
     1
  1
BYLAYER
  0
XRECORD
  5
1DC
102
{ACAD_REACTORS
330
19A
102
}
330
19A
100
AcDbXrecord
280
     1
  1
BYLAYER
  0
XRECORD
  5
1E1
102
{ACAD_REACTORS
330
19A
102
}
330
19A
100
AcDbXrecord
280
     1
  1
BYLAYER
  0
XRECORD
  5
1A0
102
{ACAD_REACTORS
330
19A
102
}
330
19A
100
AcDbXrecord
280
     1
  1
ByLayer
  0
XRECORD
  5
1B9
102
{ACAD_REACTORS
330
19A
102
}
330
19A
100
AcDbXrecord
280
     1
  1
ByLayer
  0
XRECORD
  5
1A5
102
{ACAD_REACTORS
330
19A
102
}
330
19A
100
AcDbXrecord
280
     1
  1
ByLayer
  0
XRECORD
  5
1AA
102
{ACAD_REACTORS
330
19A
102
}
330
19A
100
AcDbXrecord
280
     1
  1
ByLayer
  0
XRECORD
  5
1AF
102
{ACAD_REACTORS
330
19A
102
}
330
19A
100
AcDbXrecord
280
     1
  1
ByLayer
  0
XRECORD
  5
1B4
102
{ACAD_REACTORS
330
19A
102
}
330
19A
100
AcDbXrecord
280
     1
  1
ByLayer
  0
XRECORD
  5
1C5
102
{ACAD_REACTORS
330
19A
102
}
330
19A
100
AcDbXrecord
280
     1
 90
       -1
  0
XRECORD
  5
1CA
102
{ACAD_REACTORS
330
19A
102
}
330
19A
100
AcDbXrecord
280
     1
 90
       -1
  0
XRECORD
  5
1BB
102
{ACAD_REACTORS
330
19A
102
}
330
19A
100
AcDbXrecord
280
     1
 90
       -1
  0
XRECORD
  5
1C0
102
{ACAD_REACTORS
330
19A
102
}
330
19A
100
AcDbXrecord
280
     1
 90
       -1
  0
XRECORD
  5
1F7
102
{ACAD_REACTORS
330
19A
102
}
330
19A
100
AcDbXrecord
280
     1
 90
       -1
  0
XRECORD
  5
1FC
102
{ACAD_REACTORS
330
19A
102
}
330
19A
100
AcDbXrecord
280
     1
 90
       -1
  0
XRECORD
  5
1E3
102
{ACAD_REACTORS
330
19A
102
}
330
19A
100
AcDbXrecord
280
     1
 90
       -1
  0
XRECORD
  5
1E8
102
{ACAD_REACTORS
330
19A
102
}
330
19A
100
AcDbXrecord
280
     1
 90
       -1
  0
XRECORD
  5
1CF
102
{ACAD_REACTORS
330
19A
102
}
330
19A
100
AcDbXrecord
280
     1
 90
       -1
  0
XRECORD
  5
1D4
102
{ACAD_REACTORS
330
19A
102
}
330
19A
100
AcDbXrecord
280
     1
 90
       -1
  0
XRECORD
  5
201
102
{ACAD_REACTORS
330
19A
102
}
330
19A
100
AcDbXrecord
280
     1
 90
       -1
  0
XRECORD
  5
206
102
{ACAD_REACTORS
330
19A
102
}
330
19A
100
AcDbXrecord
280
     1
 90
       -1
  0
XRECORD
  5
1ED
102
{ACAD_REACTORS
330
19A
102
}
330
19A
100
AcDbXrecord
280
     1
 90
       -1
  0
XRECORD
  5
1F2
102
{ACAD_REACTORS
330
19A
102
}
330
19A
100
AcDbXrecord
280
     1
 90
       -1
  0
XRECORD
  5
1D9
102
{ACAD_REACTORS
330
19A
102
}
330
19A
100
AcDbXrecord
280
     1
 90
       -1
  0
XRECORD
  5
1DE
102
{ACAD_REACTORS
330
19A
102
}
330
19A
100
AcDbXrecord
280
     1
 90
       -1
  0
XRECORD
  5
19D
102
{ACAD_REACTORS
330
19A
102
}
330
19A
100
AcDbXrecord
280
     1
 90
       -1
  0
XRECORD
  5
1B6
102
{ACAD_REACTORS
330
19A
102
}
330
19A
100
AcDbXrecord
280
     1
 90
       -1
  0
XRECORD
  5
1A2
102
{ACAD_REACTORS
330
19A
102
}
330
19A
100
AcDbXrecord
280
     1
 90
       -1
  0
XRECORD
  5
1A7
102
{ACAD_REACTORS
330
19A
102
}
330
19A
100
AcDbXrecord
280
     1
 90
       -1
  0
XRECORD
  5
1AC
102
{ACAD_REACTORS
330
19A
102
}
330
19A
100
AcDbXrecord
280
     1
 90
       -1
  0
XRECORD
  5
1B1
102
{ACAD_REACTORS
330
19A
102
}
330
19A
100
AcDbXrecord
280
     1
 90
       -1
  0
XRECORD
  5
1C7
102
{ACAD_REACTORS
330
19A
102
}
330
19A
100
AcDbXrecord
280
     1
 40
-1.0
  0
XRECORD
  5
1CC
102
{ACAD_REACTORS
330
19A
102
}
330
19A
100
AcDbXrecord
280
     1
 40
-1.0
  0
XRECORD
  5
1BD
102
{ACAD_REACTORS
330
19A
102
}
330
19A
100
AcDbXrecord
280
     1
 40
-1.0
  0
XRECORD
  5
1C2
102
{ACAD_REACTORS
330
19A
102
}
330
19A
100
AcDbXrecord
280
     1
 40
-1.0
  0
XRECORD
  5
1F9
102
{ACAD_REACTORS
330
19A
102
}
330
19A
100
AcDbXrecord
280
     1
 40
-1.0
  0
XRECORD
  5
1FE
102
{ACAD_REACTORS
330
19A
102
}
330
19A
100
AcDbXrecord
280
     1
 40
-1.0
  0
XRECORD
  5
1E5
102
{ACAD_REACTORS
330
19A
102
}
330
19A
100
AcDbXrecord
280
     1
 40
-1.0
  0
XRECORD
  5
1EA
102
{ACAD_REACTORS
330
19A
102
}
330
19A
100
AcDbXrecord
280
     1
 40
-1.0
  0
XRECORD
  5
1D1
102
{ACAD_REACTORS
330
19A
102
}
330
19A
100
AcDbXrecord
280
     1
 40
-1.0
  0
XRECORD
  5
1D6
102
{ACAD_REACTORS
330
19A
102
}
330
19A
100
AcDbXrecord
280
     1
 40
-1.0
  0
XRECORD
  5
203
102
{ACAD_REACTORS
330
19A
102
}
330
19A
100
AcDbXrecord
280
     1
 40
-1.0
  0
XRECORD
  5
208
102
{ACAD_REACTORS
330
19A
102
}
330
19A
100
AcDbXrecord
280
     1
 40
-1.0
  0
XRECORD
  5
1EF
102
{ACAD_REACTORS
330
19A
102
}
330
19A
100
AcDbXrecord
280
     1
 40
-1.0
  0
XRECORD
  5
1F4
102
{ACAD_REACTORS
330
19A
102
}
330
19A
100
AcDbXrecord
280
     1
 40
-1.0
  0
XRECORD
  5
1DB
102
{ACAD_REACTORS
330
19A
102
}
330
19A
100
AcDbXrecord
280
     1
 40
-1.0
  0
XRECORD
  5
1E0
102
{ACAD_REACTORS
330
19A
102
}
330
19A
100
AcDbXrecord
280
     1
 40
-1.0
  0
XRECORD
  5
19F
102
{ACAD_REACTORS
330
19A
102
}
330
19A
100
AcDbXrecord
280
     1
 40
-1.0
  0
XRECORD
  5
1B8
102
{ACAD_REACTORS
330
19A
102
}
330
19A
100
AcDbXrecord
280
     1
 40
-1.0
  0
XRECORD
  5
1A4
102
{ACAD_REACTORS
330
19A
102
}
330
19A
100
AcDbXrecord
280
     1
 40
-1.0
  0
XRECORD
  5
1A9
102
{ACAD_REACTORS
330
19A
102
}
330
19A
100
AcDbXrecord
280
     1
 40
-1.0
  0
XRECORD
  5
1AE
102
{ACAD_REACTORS
330
19A
102
}
330
19A
100
AcDbXrecord
280
     1
 40
-1.0
  0
XRECORD
  5
1B3
102
{ACAD_REACTORS
330
19A
102
}
330
19A
100
AcDbXrecord
280
     1
 40
-1.0
  0
XRECORD
  5
19C
102
{ACAD_REACTORS
330
19A
102
}
330
19A
100
AcDbXrecord
280
     1
  1
SPI_UNF
  0
XRECORD
  5
19B
102
{ACAD_REACTORS
330
19A
102
}
330
19A
100
AcDbXrecord
280
     1
 91
        0
  0
ENDSEC
  0
EOF
